» » »

Kitchie Nadal, Same Ground Tabs (ver.2)

Artists:  A B C D E F G H I J K L M N O P Q R S T U V W X Y Z # 

Same Ground Tabs (ver.2)

Kitchie Nadal Tabs
Rating:
4/5 (3 votes)
Same Ground lessons Tabs too difficult? Try these video lessons and learn fast
                same ground by kitchie nadal
yahoo messenger - jco_lead
(hope you'll enjoy this song coz its freaking nice!)

INTRO
A-G
(acoustic sim)
--0---3---2---0----------------------------------------|
--2---3---3---3----------------------------------------|
--2---0---0---0----------------------------------------|
--2---0---0---0----------------------------------------|
--0---2---2---2----------------------------------------|
--0---3---3---3----------------------------------------|

VERSE
A-G
A-G
(acoustic sim)
--0---3----------------------------------------------|
--2---3----------------------------------------------|
--2---0----------------------------------------------|
--2---0----------------------------------------------|
--0---2----------------------------------------------|
--0---3----------------------------------------------|
CHORUS
A-Em-F#-D
(distortion)
*single strum only!!
-------------------------------------------------------|
-------------------------------------------------------|
--------------7----------------------------------------|
--------------5----------------------------------------|
--7---2---4--------------------------------------------|
--5---0---2--------------------------------------------|

**during the chorus, another gutarist needs to play this part:

A-Em-F#-D
(acoustic sim)
*strumming
--0---0---2---2----------------------------------------|
--2---0---2---3----------------------------------------|
--2---1---2---2----------------------------------------|
--2---2---4---0----------------------------------------|
--0---2---4---0----------------------------------------|
--0---0---2---0----------------------------------------|

SOLO (1st part of the solo)
(aoustic sim/ delay)
**this is the part where kitchie is still singing!!
h- hammer on
H- hammer off
s- slide
---------------------7-7h9-------------------------------|
----------------8-10-------10----------------------------|
------------7-9------------------------------------------|
---------7-----------------------------------------------|
-----7-8-------------------------------------------------|
--10-----------------------------------------------------|


SOLO (2nd part of the solo)
h- hammer on
H- hammer off
s- slide
--------------------------------------------------------------------------|
-------------------------------------------------------10--12-12s14-14-14-|
-------7--9--11-11h12--9-9--9s7-7-7-7s6-6h7s9-6h7s9--9---9----------------|
--------------------------------------------------------------------------|
-----7--------------------------------------------------------------------|
--10----------------------------------------------------------------------|


---------------------12-----------------------------12h14-12---12-----|
--14s15--12-12-12h14----14-12h14-12--10-7s5-7H5-----12h14-12-12-------|
------------------------------------------------4-6-------------------|
----------------------------------------------------------------------|
----------------------------------------------------------------------|
----------------------------------------------------------------------|


---------------------------------7---9---10---12s17-17H16-14-16H14-12-14H12-|
----------------------------10----------------------------------------------|
--12s11s12--12h14—9H7h9-7s9----9---9---9---9--------------------------------|
----------------------------------------------------------------------------|
----------------------------------------------------------------------------|
----------------------------------------------------------------------------|


--------------------------------------------------|
--12H10-9-10H9-7-9H7-5-7-5------------------------|
---------------------------6-5--------------------|
-------------------------------8-7-5--------------|
-------------------------------------8-7-5--------|
-------------------------------------------7------|

**immediately switch to chorus after the last stroke of the solo!!

ending solo
h- hammer on
H- hammer off
s- slide

--------------------------------------------------------|
--9-10--------------------------------------------------|
-------11h12-11-9h11-9-7H6-9-----4-4h6-6H4--------------|
-------------------------------7-----------7------------|
-----------------------------7--------------------------|
--------------------------------------------------------|

OUTRO
A-G
(acoustic sim)
--0---3---2---0----------------------------------------|
--2---3---3---3----------------------------------------|
--2---0---0---0----------------------------------------|
--2---0---0---0----------------------------------------|
--0---2---2---2----------------------------------------|
--0---3---3---3----------------------------------------|

tnx to all who have inspired me play...G0D, my family, bea, friends/classmates, NU 107!
support our band freefall/ support our song tightrope!
please rate my tab
            

comments powered by Disqus
↑ Back to top | Kitchie Nadal Tabs for Same Ground. Lyrics for acoustic guitar and electric guitar. Tablatures and chords are parodies/interpretations of the original songs. You may use it for private study, scholarship, research or language learning purposes only