» » »

Same Ground Tabs (ver.1)

Artists:  A B C D E F G H I J K L M N O P Q R S T U V W X Y Z # 

Same Ground Tabs (ver.1)

Kitchie Nadal
Rating:
3/5 (5 votes)

Hard to play? Try these video lessons and learn fast.
                Song  : Same Ground
Tuning: Standard Tuning [ E A D G B E ]

Guitar I - Clean or Acoustic
Guitar II- Distorted

Hehe... may maling onti dun sa una, eto inayos ko na. sa stanze chords lang at sa lead
ung inayos ko tignan nyo na lang kung tama pag me mali ulit notify nyo agad ako add nyo
na rin ako sa friendster nyo. Tnx 4 ur appreciation & continuous support. paki rate na
lang po. RoK On!! PunK's Not DeaD!!


Tab Legend:
 h - hammer on
 p - pull off from / hammer off
 S - shift slide
 s - legato slide

Strumming: (nasa ibaba ng bawat bar)
 D - Down Strum
 U - Up Strum

A. Intro
A2-G-Em

    A2		     G        Em 
e|--0000-----000-----333-333--0000---|
B|--0000h3p0-000h3p0-000-333--0000---|
G|--2222-----222-----000-000--0000---|
D|--2222-----222-----000-000--2222---|
A|--0000-----000-----222-000--2222---|
E|--0000-----000-----333-222--0000---|
    DUUD     UUD     DUU DUU  DUDU


    A2		     G        Em 
e|--0000-----000-----333-3----0---|
B|--0000h3p0-000h3p0-333-3----0---|
G|--2222-----222-----000-0----0---|
D|--2222-----222-----000-0----2---|
A|--0000-----000-----222-0----2---|
E|--0000-----000-----333-2----0---|
    DUUD     UUD     DUU D    D
Eto ung bass nung intro, verse 1 & 2, sa solo at sa outro

G|---------------------|
D|---------------------|
A|---------------------|
E|--5-5-5--5--3-3-3-0--|

Note: Dun sa bass bago mag-chorus, wala nang 0

B. Verse 1
A2-G-Em

    A2		     G        Em 
e|--0000-----000-----333-333--0000---|
B|--0000h3p0-000h3p0-000-333--0000---|
G|--2222-----222-----000-000--0000---| x7
D|--2222-----222-----000-000--2222---|
A|--0000-----000-----222-000--2222---|
E|--0000-----000-----333-222--0000---|
    DUUD     UUD     DUU DUU  DUDU

Before chorus

    A2		     G    
e|--0000-----000-----333-3333333----|
B|--0000h3p0-000h3p0-333-3333333----|
G|--2222-----222-----000-0000000----|
D|--2222-----222-----000-0000000----|
A|--0000-----000-----222-0000000----|
E|--0000-----000-----333-2222222----|
    DUUD     UUD     DUU DUUDUDU 

C. Chorus
A5-E5-F#5-D5 x2
Distorted mode

    A  E  F# D     A  E  F#    D
e|--------------|-----------------|
B|--------------|-----------------|
G|--------------|-----------------|
D|-----9-----7--|-----9--------7--|
A|--7--7--4--5--|--7--7--4-4-4-5--|
E|--5-----2-----|--5-----2-2-2----|
    D  D  D  D     D  D  D D D D

A2-E-F#m-D
A2-E-F#m-Dm(Isang Bagsak Lang Dito sa Dm)
Clean mode to
Played Also In Chorus

    A2          E          F#m        D
e|--0-00-00000-0-00-02222-2-22-22222-2-22-22222-|
B|--0-00-00000-0-00-02222-2-22-22222-3-33-33333-|
G|--2-22-22222-1-11-12222-2-22-22222-2-22-22222-|
D|--2-22-22222-2-22-22222-4-44-44444-0-00-00000-|
A|--0-00-00000-2-22-22222-4-44-44444------------|
E|--0-00-00000-0-00-00000-2-22-22222------------|
    D UD UUUDU D UD UUUDU D UD UUUDU D UD UUUDU

    A2          E          F#m          Dm
e|--0-00-00000-0-00-02222-2-222-2-222-2-1-|
B|--0-00-00000-0-00-02222-2-222-2-222-2-3-|
G|--2-22-22222-1-11-12222-2-222-2-222-2-2-|
D|--2-22-22222-2-22-22222-4-444-4-444-4-0-|
A|--0-00-00000-2-22-22222-4-444-4-444-4---|
E|--0-00-00000-0-00-00000-2-222-2-222-2---|
    D UD UUUDU D UD UUUDU D DDD D DDD D D 

Eto naman bass nung chorus

G|----------------------------------------------------------------------|
D|----------------------------------------------------------------------|
A|--------------------7--7-7--7----7--------------------5---5-5--5---5--|
E|---5---5-5--5---5--------------------2---2-2--2---2-------------------|

G|--------------------------------------------------------|
D|--------------------------------------------------------|
A|--------------------7---7-7--7---7-------------------5--|
E|---5---5-5--5---5--------------------2---2--2----2------|


D. Verse 2
A2-G-Em

    A2		     G        Em 
e|--0000-----000-----333-333--0000---|
B|--0000h3p0-000h3p0-000-333--0000---|
G|--2222-----222-----000-000--0000---| x7
D|--2222-----222-----000-000--2222---|
A|--0000-----000-----222-000--2222---|
E|--0000-----000-----333-222--0000---|
    DUUD     UUD     DUU DUU  DUDU

Before chorus

    A2		     G   
e|--0000-----000-----333-3333333----|
B|--0000h3p0-000h3p0-333-3333333----|
G|--2222-----222-----000-0000000----|
D|--2222-----222-----000-0000000----|
A|--0000-----000-----222-0000000----|
E|--0000-----000-----333-2222222----|
    DUUD     UUD     DUU DUUDUDU 

E. Chorus
A5-E5-F#5-D5 x2
Distorted mode

    A  E  F# D     A  E  F#    D
e|--------------|-----------------|
B|--------------|-----------------|
G|--------------|-----------------|
D|-----9-----7--|-----9--------7--|
A|--7--7--4--5--|--7--7--4-4-4-5--|
E|--5-----2-----|--5-----2-2-2----|
    D  D  D  D     D  D  D D D D

A2-E-F#m-D
A2-E-F#m-Dm(Isang Bagsak Lang Dito sa Dm)
Clean mode to
Played Also In Chorus

    A2          E          F#m        D
e|--0-00-00000-0-00-02222-2-22-22222-2-22-22222-|
B|--0-00-00000-0-00-02222-2-22-22222-3-33-33333-|
G|--2-22-22222-1-11-12222-2-22-22222-2-22-22222-|
D|--2-22-22222-2-22-22222-4-44-44444-0-00-00000-|
A|--0-00-00000-2-22-22222-4-44-44444------------|
E|--0-00-00000-0-00-00000-2-22-22222------------|
    D UD UUUDU D UD UUUDU D UD UUUDU D UD UUUDU

    A2          E          F#m          Dm
e|--0-00-00000-0-00-02222-2-222-2-222-2-1-|
B|--0-00-00000-0-00-02222-2-222-2-222-2-3-|
G|--2-22-22222-1-11-12222-2-222-2-222-2-2-|
D|--2-22-22222-2-22-22222-4-444-4-444-4-0-|
A|--0-00-00000-2-22-22222-4-444-4-444-4---|
E|--0-00-00000-0-00-00000-2-222-2-222-2---|
    D UD UUUDU D UD UUUDU D DDD D DDD D D 

F. Guitar Solo / Adlib
Distortion Off
Eto pagkatapos nung D & Dm sa chorus
Kumakanta pa si Kitchie sa part na ito
Pakinggan nyo na lang sa kanta kung saan

e|----------------------10-12-12S14---10---|
B|----------------10-11--------------------|
G|----------10-12--------------------------|
D|-----9-10--------------------------------|
A|--12-------------------------------------|
E|-----------------------------------------|

Note: Another guitarist needs to play this
Rhythm ito habang nag lelead

A2-G-Em

    A2		     G        Em 
e|--0000-----000-----333-333--0000---|
B|--0000h3p0-000h3p0-000-333--0000---|
G|--2222-----222-----000-000--0000---| x5
D|--2222-----222-----000-000--2222---|
A|--0000-----000-----222-000--2222---|
E|--0000-----000-----333-222--0000---|
    DUUD     UUD     DUU DUU  DUDU

Tapos eto na ung kasunod

e|-------------------------------------------|
B|----------7h8p7-5-7-5--5s7-5-----5-----5---|
G|------5-7--------------------6h7---6h7-----|
D|--3S5--------------------------------------|
A|-------------------------------------------|
E|-------------------------------------------|

e|------------------------------------------------|
B|----10---12--12s14-14-14-12s14-14-14h15p14-12---|
G|--9----9----------------------------------------|
D|------------------------------------------------|
A|------------------------------------------------|
E|------------------------------------------------|

e|--------12-12---------------------------------------|
B|--12-14-------14-12---------------------------------|
G|---------------------11-9s8s9h10p9-9----------------|
D|-------------------------------------11-11s9-9s12---|
A|----------------------------------------------------|
E|----------------------------------------------------|

e|--12h14p12-15-----------------------------|
B|--12h14p12-15-14s13s14--------------------|
G|-----------------------12s11s12-------9---|
D|--------------------------------11-12-----|
A|------------------------------------------|
E|------------------------------------------|

e|----------------12s17s16-----------------------------------------------|
B|--------------9----------11s14s12--------------------------------------|
G|--6-7--8s9-10----------------------12-10-------9----7------------------|
D|-----------------------------------------11-13---10---9-7--------------|
A|----------------------------------------------------------9s5------7---|
E|--------------------------------------------------------------8-6--5---|
								     Chorus 
G. Chorus
A5-E5-F#5-D5 x2
Distorted mode

    A  E  F# D     A  E  F#    D
e|--------------|-----------------|
B|--------------|-----------------|
G|--------------|-----------------|
D|-----9-----7--|-----9--------7--|
A|--7--7--4--5--|--7--7--4-4-4-5--|
E|--5-----2-----|--5-----2-2-2----|
    D  D  D  D     D  D  D D D D

A2-E-F#m-D
A2-E-F#m-Dm(Isang Bagsak Lang Dito sa Dm)
Clean mode to
Played Also In Chorus

    A2          E          F#m        D
e|--0-00-00000-0-00-02222-2-22-22222-2-22-22222-|
B|--0-00-00000-0-00-02222-2-22-22222-3-33-33333-|
G|--2-22-22222-1-11-12222-2-22-22222-2-22-22222-|
D|--2-22-22222-2-22-22222-4-44-44444-0-00-00000-|
A|--0-00-00000-2-22-22222-4-44-44444------------|
E|--0-00-00000-0-00-00000-2-22-22222------------|
    D UD UUUDU D UD UUUDU D UD UUUDU D UD UUUDU

    A2          E          F#m          Dm
e|--0-00-00000-0-00-02222-2-222-2-222-2-1-|
B|--0-00-00000-0-00-02222-2-222-2-222-2-3-|
G|--2-22-22222-1-11-12222-2-222-2-222-2-2-|
D|--2-22-22222-2-22-22222-4-444-4-444-4-0-|
A|--0-00-00000-2-22-22222-4-444-4-444-4---|
E|--0-00-00000-0-00-00000-2-222-2-222-2---|
    D UD UUUDU D UD UUUDU D DDD D DDD D D 

H. Outro
Eto ung Solo pagkatapos ung 3rd chorus

e|-------------------------------------------------------------------------|
B|--9-11-------------------------------------------------------------------|
G|--------11h12p11--9s11s10------------------------------------------------|
D|--------------------------11-10-9--7--7s8-10-11--10s12-13-9--11-12-10-7--|
A|-------------------------------------------------------------------------|
E|-------------------------------------------------------------------------|

Note: This is also played in the outro
A2-G-Em

    A9		     G        Em 
e|--0000-----000-----333-333--0000---|
B|--0000h3p0-000h3p0-000-333--0000---|
G|--2222-----222-----000-000--0000---| x6
D|--2222-----222-----000-000--2222---|
A|--0000-----000-----222-000--2222---|
E|--0000-----000-----333-222--0000---|
    DUUD     UUD     DUU DUU  DUDU

End on A2(Single Strum Only)

============================================================================
Binabati ko nga pala lahat ng Rockers, Trashers, Punks, Mosh Pits, at Riders, astig kayong lahat!!
Lalo na po sa lahat ng bumubuo sa ScHiZoFReNiX!! c",)
            
Hard to play? Try these video lessons and learn fast. | Correct




comments powered by Disqus
↑ Back to top | Tablatures and chords are parodies/interpretations of the original songs. You may use it for private study, scholarship, research or language learning purposes only