» » »

Kitchie Nadal, Same Ground Tabs (ver.3)

Artists:  A B C D E F G H I J K L M N O P Q R S T U V W X Y Z # 

Same Ground Tabs (ver.3)

Kitchie Nadal Tabs
 Rating:
4/5 (4 votes)
Same Ground lessons Tabs too difficult? Try these video lessons and learn fast
                -------------------------------------------------------------------------------
			     Same Ground - Kitchie Nadal
-------------------------------------------------------------------------------

First Tab ko po toh...
Hango po ito sa piano version ng same ground...
Pasensya na poh...
sobrang naastigan lang poh ako sa kantang ito...
heheheheh... sana magustuhan nyo ito...

Strum nyo na lang po kung gusto nyo syang normal version...

Tuning: standard (EADGBe)

Intro:
	A			G

e|-----------5---------7-------------------------5------------9v---------------|
B|-------5-----5-----------------------------3-----3---------------------------|
G|-----------------------------------------------------------------------------|    (2x)
D|-----------------------------------------------------------------------------|
A|-----------------------------------------------------------------------------|
E|-----5---------------------------------------3-------------------------------|


Verse:

	A		G

e|------------0--------------------------3-------------|
B|---------------2-------------------------3-----------|
G|------------------(0)---------------------------(0)--|    repeat throughout verse
D|---------2-------------------------------------------|
A|------0--------------------------2-------------------|
E|-------------------------------3---------------------|


Chorus: Strum it!

	A	E	F#m7	      D
e|-------0--------------0------------------2---------------2------------------|
B|------2---------------0-----------------2---------------3-------------------|
G|------2---------------1-----------------2---------------2-------------------|
D|------2---------------2-----------------2---------------0-------------------|
A|------0---------------2-----------------4-----------------------------------|
E|-----------------------0-----------------2----------------------------------|

Intro 2: slight variation or you could just strum it...

	sa pangalawang ulit po sa G
e|------------9-\----7-------5----5--\---3-------------------------------------|
B|-----------7-----------------------------------------------------------------|
G|-----------------------------------------------------------------------------|
D|-----------------------------------------------------------------------------|
A|-----------------------------------------------------------------------------|
E|-----------------------------------------------------------------------------|

Lyrics:

My love its been a long time since i cried & left you, out of the blue
It's hard, leaving you that way where i never wanted to
Self denial, is a game it's strange i never would' ve wanted until if, there was you

Because i have learned that love is beyond what i can imagine,
The more it clears the more i have to let you go

Chorus:

But i don't understand
why i'm feeling so bad
when i know it was my idea
i could've just denied the truth and lied
why am i the only one standing
stranded on the same ground

My love its been a long time since i cried & left you, out of the blue
It's hard, leaving you that way where i never wanted to
Self denial, is a game it's strange i never would' ve wanted until if, there was you

because i have learned that love is a word, gets thrown a little bit too much,
the best excuse to fill the infinite abyss i never have to

if all else tail would you be there to love me
when all else fail, would you be brave to dee right through me
            
Submit corrections

comments powered by Disqus
↑ Back to top | Kitchie Nadal Tabs for Same Ground. Lyrics for acoustic guitar and electric guitar. Tablatures and chords are parodies/interpretations of the original songs. You may use it for private study, scholarship, research or language learning purposes only