» » »

Wag Na Wag Mong Sasabihin Bass tabs (ver.1)

Artists:  A B C D E F G H I J K L M N O P Q R S T U V W X Y Z # 

Wag Na Wag Mong Sasabihin Bass tabs (ver.1)

Kitchie Nadal
Rating:
4/5 (2 votes)

Tabs too difficult? Try these video lessons and learn fast.
                Artist : Kitchie Nadal
Sori kung may error dun s una kung snabmitt n tab xe ndi ko msyadong npakinggan eh..
Preo i2 sure n i2... For any comments and suggestion txt nyo n lng me (09272984671)

Intro
G |----------------------------------7--------|
D |-------------------------------------------|
A |--------------444444--555555--5-7----------|
E |0h10\-555555-------------------------------|


Verse: 1 (0:00:24)- soft lng sya...
G |------------------\7-7-----------6--6--7--7--7--7--|
D |---------------------------------------------------|
A |-0--0--4--4--5--5-------\12--12--------------\10---|
E |---------------------------------------------------|


Refrain: 1 (0:00:47)

G |--------------------------------------7----|
D |-------------------------------------------|
A |--4-4-4---5-5-5---4-4-4---5-5-5---5-7------|
E |---------------------------------------/10-|


Chorus: 1 (0:01:02)

G |-------------------------------------|
D |-------------------------------------|2x
A |---------44444444-55555555----8-7-5--|
E |55555555-----------------------------|


Verse: 2 (0:01:25)

G |------------------\7-7-----------6--6--7--7--7--7--|
D |---------------------------------------------------|
A |-0--0--4--4--5--5-------\12--12--------------\10---|
E |---------------------------------------------------|

Refrain: 2 (0:01:49)

G |--------------------------------------7--|
D |-----------------------------------------|
A |--4-4-4---5-5-5---4-4-4---5-5-5---5-7----|
E |-----------------------------------------|

Chorus: 2 (0:02:03)

G |-------------------------------------|
D |-------------------------------------|2x
A |---------44444444-55555555----8-7-5--|
E |55555555-----------------------------|


Bridge: (0:02:27)

G |---------------------------------------------|
D |---------------------------------------------|
A |-44-444--55-555--44-444--55-555--555555------|
E |---------------------------------------------|


Chorus: 3 (0:02:41)

G |-------------------------------------|
D |-------------------------------------|2x
A |---------44444444-55555555----8-7-5--|
E |55555555-----------------------------|

	(0:03:05)

G |-------------------------------------|
D |-------------------------------------|2x
A |---------44444444-55555555----8-7-5--|
E |55555555-----------------------------|


	(0:03:28)
G |---------------------------/77777777---|
D |---------------------------------------|
A |00000000-44444444-55555555-------------|
E |---------------------------------------|

	(0:03:40)
G |--------------------------------7----|
D |-------------------------------------|2x
A |---------44444444-55555555--5-7------|
E |55555555-----------------------------|

 -End- ¬_¬


Mabuhay Batch 04-05 ng G.A.S. (IV-REDWOOD, IV-Hemlock and Iv-Lacebark) esp. (JL)
Please Rate it... thnx!! \m/
            
Tabs too difficult? Try these video lessons and learn fast.




comments powered by Disqus
↑ Back to top | Tablatures and chords are parodies/interpretations of the original songs. You may use it for private study, scholarship, research or language learning purposes only