» » »

Wag Na Wag Mong Sasabihin Tabs (ver.2)

Artists:  A B C D E F G H I J K L M N O P Q R S T U V W X Y Z # 

Wag Na Wag Mong Sasabihin Tabs (ver.2)

Kitchie Nadal
Rating:
5/5 (22 votes)

Hard to play? Try these video lessons and learn fast.
                
Track: 4
Tuning: EADBGe (Standard)


*Intro: 
A-C#m-D-Dm (2x)

Guitar 1:
e|--0000000000-4444444444-22222222222-11111111111--||
B|--2222222222-5555555555-33333333333-33333333333--||
G|--2222222222-6666666666-22222222222-22222222222--||
D|--2222222222-6666666666-00000000000-00000000000--||
A|--0000000000-4444444444-------------00000000000--||
E|-------------------------------------------------||


Guitar 2:
e|--5-7-4----------------5-7-4-----------------||
B|--------5--------------------5---------------||
G|----------2/6-4\2h4--2---------2/6-4\2h4--2--|| (Repeat 2x)
D|---------------------------------------------||
A|---------------------------------------------||
E|---------------------------------------------||


*Verse 1:
A-C#m-D-Dm (2x)

Guitar 1:
e|--0000000000-4444444444-2222222222-1111111111--||
B|--2222222222-5555555555-3333333333-3333333333--||
G|--2222222222-6666666666-2222222222-2222222222--||
D|--2222222222-6666666666-0000000000-0000000000--||
A|--0000000000-4444444444------------0000000000--||
E|-----------------------------------------------||

Guitar 2:
e|--5555555555-4444444444-5555555555-5555555555--||
B|--5555555555-5555555555-7777777777-6666666666--||
G|--6666666666-6666666666-7777777777-7777777777--||
D|--7777777777-6666666666-7777777777-7777777777--||
A|--7777777777-4444444444-5555555555-5555555555--||
E|--5555555555-----------------------------------||


*Refrain:
C#m-D (2X)

Guitar 1:
e|--4444444444-2222222222--||
B|--5555555555-3333333333--||
G|--6666666666-2222222222--||
D|--6666666666-0000000000--||
A|--4444444444-------------||
E|-------------------------||

Guitar 2:
e|----4-5------7-5-----4-5-----7-5---------------||
B|--5--------5-------5-------5-------------------||
G|---6--------6-------6-------6------------------||
D|-----------------------------------------------||
A|-----------------------------------/8-8-7-7-5--||
E|-----------------------------------------------||



*Chorus 1:
A-C#m-D-Dm (2x)

Guitar 1:
e|--0000000000-4444444444-2222222222-1111111111--||
B|--2222222222-5555555555-3333333333-3333333333--||
G|--2222222222-6666666666-2222222222-2222222222--||
D|--2222222222-6666666666-0000000000-0000000000--||
A|--0000000000-4444444444------------0000000000--||
E|-----------------------------------------------||

Guitar 2:
e|--5-7-4----------------5-7-4-----------------||
B|--------5--------------------5---------------||
G|----------2/6-4\2h4--2---------2/6-4\2h4--2--|| (Repeat 2x)
D|---------------------------------------------|| 
A|---------------------------------------------||
E|---------------------------------------------||


  

*Verse 2:
A-C#m-D-Dm (2x)

Guitar 1:
e|--0000000000-4444444444-2222222222-1111111111--||
B|--2222222222-5555555555-3333333333-3333333333--||
G|--2222222222-6666666666-2222222222-2222222222--||
D|--2222222222-6666666666-0000000000-0000000000--||
A|--0000000000-4444444444------------0000000000--||
E|-----------------------------------------------||

Guitar 2:
e|--------------------------------------------||
B|--------------------------------------------||
G|--2-2-2-2-2-2-2-2----2-2h4-4-4-4-4-4-4p2-2--|| (Repeat 2X)
D|--------------------------------------------||
A|--------------------------------------------||
E|--------------------------------------------||


(Repeat Refrain)
(Repeat Chorus 1)

BRIDGE:
C#m-D (2X)

Guitar 1:
e|--4444444444-2222222222--||
B|--5555555555-3333333333--||
G|--6666666666-2222222222--||
D|--6666666666-0000000000--||
A|--4444444444-------------||
E|-------------------------||

Guitar 2:
e|--4444444444-5555555555--||
B|--5555555555-7777777777--||
G|--6666666666-7777777777--||
D|--6666666666-7777777777--||
A|--4444444444-5555555555--||
E|-------------------------||

*Chorus 2
A-C#m-D-Dm (7x)

Guitar 1:
e|--0000000000-4444444444-22222222222-11111111111--||
B|--2222222222-5555555555-33333333333-33333333333--||
G|--2222222222-6666666666-22222222222-22222222222--||
D|--2222222222-6666666666-00000000000-00000000000--||
A|--0000000000-4444444444-------------00000000000--||
E|-------------------------------------------------||

Guitar 2:
e|--5-7-4----------------5-7-4-----------------|
B|--------5--------------------5---------------|
G|----------2/6-4\2h4--2---------2/6-4\2h4--2--|
D|---------------------------------------------| (Repeat 3x)
A|---------------------------------------------|
E|---------------------------------------------|

e|--7--5--7--5--7-7-5--7-5-7--9""""""""""-------10"""""--|
B|---5--5--5--5-------5-5-5—-10""""""""""-------10"""""--|
G|----------------------------9""""""""""-------9""""""--|
D|-------------------------------------------------------| (Repeat 3x)
A|-------------------------------------------------------|
E|-------------------------------------------------------|

e|-7--5--7--5--7-7-5--7-5-7--9""""""""""--10"""""--||
B|--5--5--5--5-------5-5-5—-10""""""""""--10"""""--||
G|---------------------------9""""""""""--9""""""--||
D|-------------------------------------------------||
A|-----------------------------------------4--5----||
E|-------------------------------------/5----------||


May gusto ka bang sabihin
Ba't di mapakali
Ni hindi makatingin
Sana'y wag mo na tong palipasin
At subukang lutasin 
Sa mga sinabi mo na

Refrain:
Ibang nararapat sa akin
Na tunay kong mamahalin

Chorus:
Oh.. wag na wag mong sasabihin
Na hindi mo nadama itong
Pag-ibig kong handang 
Ibigay kahit pa kalayaan mo 

Ano man ang 'yong akala
Na ako'y isang bituin
Na walang sasambahin
'Di ko man ito ipakita
Abot langit ang daing
Sa mga sinabi mo na

(Repeat Refrain)
(Repeat Chorus)

Bridge:
At sa gabi sinong duduyan sayo
At sa umaga ang hangin and hahaplos sayo

(Repeat Chorus 2x)
            
Hard to play? Try these video lessons and learn fast. | Correct




comments powered by Disqus
↑ Back to top | Tablatures and chords are parodies/interpretations of the original songs. You may use it for private study, scholarship, research or language learning purposes only