» » »

Everybody's Changing Tabs (ver.3)

Artists:  A B C D E F G H I J K L M N O P Q R S T U V W X Y Z # 

Everybody's Changing Tabs (ver.3)

Keane
Rating:
0/5 (0 votes)

Hard to play? Try these video lessons and learn fast.
                Keane - Everybody's changing  (my guitar cover)

E|------------------------------------------------------|
A|------------------------------------------------------|
D|--X--X--X--X---X--X--X--X---X--X--10-X---X--X--X--X---|
G|--10-9--12-9---10-9--12-9---10-9--X--9---10-9--12-9---|
H|--10-10-10-10--10-10-10-10--10-10-10-10--10-10-10-10--|
e|--8--8--8--8---8--8--8--8---8--8--8--8---8--8--8--8---|


(no guitar under the first verse)

You say you wander your own land
But when I think about iT
I don't see how you can

E|----------------------|
A|----------------------|
D|--X---X---X---X-------|
G|--10--9---12--9-------|
H|--10--10--10--10------|
e|--8---8---8---8-------|

        C
You're aching, you're breaking
    F
And I can see the pain in your eyes
      Dm
Says everybody's changing
    G
And I don't know why

E|----------------------|
A|----------------------|
D|--X---X---X---X-------|
G|--10--9---10--9-------|
H|--10--10--10--10------|
e|--8---8---8---8-------|

F          G
So little time
C                       F
Try to understand that I'm
Dm                             G
Trying to make a move just to stay in the game
   Em                      A
I try to stay awake and remember my name
    Dm                         G
But everybody's changing and I don't feel the same

E|-----------------------------------------|
A|-----------------------------------------|
D|--X--X--X--X---X--X--X--X---X--X--10-X---|
G|--10-9--12-9---10-9--10-9---10-9--X--9---|
H|--10-10-10-10--10-10-10-10--10-10-10-10--|
e|--8--8--8--8---8--8--8--8---8--8--8--8---|

C
You're gone from here
C
Soon you will disappear
F                     D(at low, if you can...:D)
Fading into beautiful light
     Dm
'cos everybody's changing
      G
And I don't feel right

E|----------------------|
A|----------------------|
D|--X---X---X---X-------|
G|--10--9---10--9-------|
H|--10--10--10--10------|
e|--8---8---8---8-------|

F          G
So little time
C                       F
Try to understand that I'm
Dm                             G
Trying to make a move just to stay in the game
   Em                      A
I try to stay awake and remember my name
    Dm                         G
But everybody's changing and I don't feel the same

E|----------------------------------------------------------------------------|
A|-------------------------------------------------------------------8-10~----|
D|--X--X--X--X---X--X--X--X---X--X--10-X------------------7---7-9-10----------|
G|--10-9--12-9---10-9--12-9---10-9--X--9------7-9-10-9-10--10-----------------|
H|--10-10-10-10--10-10-10-10--10-10-10-10-------------------------------------|
e|--8--8--8--8---8--8--8--8---8--8--8--8----8---------------------------------|


F          G
So little time
C                       F
Try to understand that I'm
Dm                             G
Trying to make a move just to stay in the game
   Em                      A
I try to stay awake and remember my name
    Dm                         G
But everybody's changing and I don't feel the same

E|----------------------|
A|----------------------|
D|--X---X---X---X-------|
G|--10--9---10--9-------|
H|--10--10--10--10------|
e|--8---8---8---8-------|

              Dm                         G
Ooohhhhhhhhh, everybody's changing and I don't feel the same


Enjoy! =)
            
Hard to play? Try these video lessons and learn fast. | Correct




comments powered by Disqus
↑ Back to top | Tablatures and chords are parodies/interpretations of the original songs. You may use it for private study, scholarship, research or language learning purposes only