» » »

Keane, Everybody's Changing Bass tabs (ver.3)

Artists:  A B C D E F G H I J K L M N O P Q R S T U V W X Y Z # 

Everybody's Changing Bass tabs (ver.3)

Keane Tabs
 Rating:
4/5 (4 votes)
Everybody's Changing lessons Tabs too difficult? Try these video lessons and learn fast
                Band: Keane
Autor: Erickson 'Sony' Lagos

This tab is the piano and bass, it goes:

Intro:
       G---------9-9----------9-9----------11-11----------9-9---------|
       D-10-109-9---9-10-109-9---9-10-109-9-----9-10-109-9---9-910----|
       A--------------------------------------------------------------|
       E--------------------------------------------------------------|


Verse:
(I don't gonna put all the time 'cause it's very long)all along the verse
       G--------------------------------------------------------------|
       D--------------------------------------------------------------|
       A-33333333----------55555555-----------------------------------|
       E----------11111111----------33333333--------------------------|

Pre chorus
       G--------------------------------------------------------------|
       D-10-109-9-10-109----------------------------------------------|
       A--------------------------------------------------------------|
       E--------------------------------------------------------------|


Chorus:
       G---------------------------------------------------------------|
       D---------------------------------------------------------------|
       A---------------3333333----------555555555555555----------------|
       E-11111113333333-------111111111----------------333333333333333-|

       G--------------------------------------------------------------|
       D--------------------------------------------------------------|
       A---------------000000000000-2222222222-4444445(12)------------|
       E-0000000000000----------------------------------3(12----------|


Break:

       G---------9-9-------------------11-11--------------------------|
       D-10-109-9---9-12-9-12-9-12-9-9------910-----------------------|
       A--------------------------------------------------------------|
       E--------------------------------------------------------------|


Chorus


 Verse:
       G---------9-9----------9-9----------11-11---11----10----7---6----|
       D-10-109-9---9-10-109-9---9-10-109-9-----9----910---910--910-912-|
       A----------------------------------------------------------------|
       E----------------------------------------------------------------|

Chorus


One of the greats of Keane,I really love this song, means much to me...
            
Submit corrections

comments powered by Disqus
↑ Back to top | Keane Bass for Everybody's Changing. Lyrics for acoustic guitar and electric guitar. Tablatures and chords are parodies/interpretations of the original songs. You may use it for private study, scholarship, research or language learning purposes only