>
 >
A Bad Dream

A Bad Dream Guitar Tabs

Keane - A Bad Dream chords, tabs, tablatures, lyrics

Guitar lessons | Add/correct | Request | Top 50 tabs Artists:  A B C D E F G H I J K L M N O P Q R S T U V W X Y Z 0-9

A Bad Dream Guitar Tabs – Keane

CD, Sheet music, Poster

Do you like A Bad Dream? Share with your friends now
ChordsChords v2Chords v3Chords v4TabsTabs v2
UPDATED VERSION
I forgot to add in the chorus :]


Tuning: Regular

The tabs that were already posted weren't correct 
so i guess i had to tab it out myself..come on people..
its not that hard...i did this all by ear so don't 
accuse me of stealing..and don't lecture me on chords cuz 
i would have no idea what u are talking about..thats why i 
bad rating or accuse me of a sucky tab..i put a lot 
of work into it...thanks and enjoy

If u want to play the intro tune your guitar to Eb A D G B E

e|---------------------------|
B|---------------------------|
G|---------------------------|
D|----1-----1-----1----1-----|
A|---------------------------|
Eb|-0-----0----0-------------|


INTRO/VERSE: [00:07 - 00:46]

"Why...do I have to fly..."
e|-3--3--3--3----1--1--1--1----1--1--1--1----------------------|
B|-4--4--4--4----2--2--2--2----2--2--2--2----4--4--4--4--------|
G|-3--3--3--3----3--3--3--3----1--1--1--1----5--5--5--5--------|
D|-5--5--5--5------------------3--3--3--3----6--6--6--6--------|
A|-6--6--6--6------------------4--4--4--4----6--6--6--6--------| x3
E|-------------------------------------------------------------|

If u can't play the 1st and 3rd chords just strum the last 3 strings

ALTERNATIVE TO INTRO/VERSE
e|-------------------------------------------------------------|
B|-8--8--8--8----6--6--6--6----6--6--6--6----4--4--4--4--------|
G|-8--8--8--8----6--6--6--6----6--6--6--6----5--5--5--5--------|
D|-8--8--8--8----8--8--8--8----6--6--6--6----6--6--6--6--------|
A|-6--6--6--6----8--8--8--8----4--4--4--4----6--6--6--6--------|
Eb|0--0--0--0----7--7--7--7----5--5--5--5----0--0--0--0--------|

THE LAST STRING IS OPTIONAL..cuz its Eb not E..your choice if u want that extra bass in
not


CHORUS: [00:46 - 01:13]

"I wake up its a bad dream.."
e|-------------------------------------------1--1--1--1---------|
B|-2--2--2--2----2--2--2--2----4--4--4--4----2--2--2--2---------|
G|-3--3--3--3----3--3--3--3----5--5--5--5----1--1--1--1---------|
D|-4--4--4--4----1--1--1--1----6--6--6--6-----------------------|
A|-4--4--4--4------------------6--6--6--6-----------------------| x2
E|--------------------------------------------------------------|

VERSE: [01:13 - 1:40]

"when...will i meet my fate:
e|-3--3--3--3----1--1--1--1----1--1--1--1---------------------|
B|-4--4--4--4----2--2--2--2----2--2--2--2----4--4--4--4-------|
G|-3--3--3--3----3--3--3--3----1--1--1--1----5--5--5--5-------|
D|-5--5--5--5------------------3--3--3--3----6--6--6--6-------|
A|-6--6--6--6------------------4--4--4--4----6--6--6--6-------| x2
E|------------------------------------------------------------|


CHORUS: [01:40 - 02:19]

"I wake up its a bad dream.."
e|-------------------------------------------1--1--1--1---------|
B|-2--2--2--2----2--2--2--2----4--4--4--4----2--2--2--2---------|
G|-3--3--3--3----3--3--3--3----5--5--5--5----1--1--1--1---------|
D|-4--4--4--4----1--1--1--1----6--6--6--6-----------------------|
A|-4--4--4--4------------------6--6--6--6-----------------------| x2
E|--------------------------------------------------------------|

BRIGE? [02:20 - 02:56]

                "where do we..."
e|----------------------------------|
B|--2--2--2--2--2--2--2--2----------|
G|--3--3--3--3--3--3--3--3----------|
D|--4--4--4--4--4--4--4--4----------|
A|--4--4--4--4--4--4--4--4----------|
E|----------------------------------|

"gooooo........i don't even...know..........my strange old face..."
e|---------------1--1--1--1------------------3--3--3--3-----------------|
B|-4--4--4--4----2--2--2--2----2--2--2--2----4--4--4--4----4--4--4--4---|
G|-5--5--5--5----3--3--3--3----3--3--3--3----3--3--3--3----5--5--5--5---|
D|-6--6--6--6------------------4--4--4--4------------------6--6--6--6---|
A|-6--6--6--6------------------4--4--4--4------------------6--6--6--6---|
E|----------------------------------------------------------------------|

and i'm thinking about those days.......thinking about those days..."
e|---------6666---------------------------6666--------------------|
B|--4--4---7777------2--2--2--2----4--4---7777-------2--2--2--2---|
G|--5--5---6666--8/--3--3--3--3----5--5---6666--8/---3--3--3--3---|
D|--6--6---------6/--4--4--4--4----6--6---------6/---4--4--4--4---|
A|--6--6-------------4--4--4--4----6--6--------------4--4--4--4---|
E|----------------------------------------------------------------|

??? [02:56 - 03:22]

e|--3--3--3--3-----6--6--6--6----1--1--1--1------------------|
B|--4--4--4--4-----7--7--7--7----2--2--2--2-----4--4--4--4---|
G|--3--3--3--3-----6--6--6--6----3--3--3--3-----5--5--5--5---|
D|----------------------------------------------6--6--6--6---|
A|----------------------------------------------6--6--6--6---|x2
E|-----------------------------------------------------------|

CHORUS [03:22 - 04:39]
"I wake up its a bad dream.."
e|-------------------------------------------1--1--1--1---------|
B|-2--2--2--2----2--2--2--2----4--4--4--4----2--2--2--2---------|
G|-3--3--3--3----3--3--3--3----5--5--5--5----1--1--1--1---------|
D|-4--4--4--4----1--1--1--1----6--6--6--6-----------------------|
A|-4--4--4--4------------------6--6--6--6-----------------------| x6
E|--------------------------------------------------------------|

:]





Comments


Popular Keane tabs & chords
Nothing In My Way Bass Tabs
Disconnected Chords
Everybody's Changing Chords
Is It Any Wonder? Chords
Love Is The End Chords
Spiralling 1 Chords
Under Pressure Chords
A Heart To Hold You Ukulele
Pretend That You Are Alone Ukulele
The Lovers Are Losing Ukulele


Song lyrics



↑ Back to top | Tablatures and chords are parodies/interpretations of the original songs. You may use it for private study, scholarship, research or language learning purposes only
© 2014 AZChords.com Contact us | Privacy policy | DMCA | Add/correct tabs | Request tabs | Top 50 tabs