» » »

Keane, Everybody's Changing Tabs (ver.1)

Artists:  A B C D E F G H I J K L M N O P Q R S T U V W X Y Z # 

Everybody's Changing Tabs (ver.1)

Keane Tabs
Rating:
0/5 (0 votes)
Everybody's Changing lessons Tabs too difficult? Try these video lessons and learn fast
                
I'm trynna play it in the keyboard,
but to me this sounds nice for the guitar, try it… Keane rocks!!!

Intro: [Finger"PICK" style…]

    C         
e|---------|---------|--0---0--|---------|
B|--1---1--|--0---0--|---------|--0---0--|
G|----0----|----0----|----0----|----0----|
D|---------|---------|---------|---------|
A|--3------|--3------|--3------|--3------|
E|---------|---------|---------|---------|
    F
e|---------|---------|--0---0--|---------|
B|--1---1--|--0---0--|---------|--0---0--|
G|----0----|----0----|----0----|----0----|
D|--3------|--3------|--3------|--3------|
A|---------|---------|---------|---------|
E|---------|---------|---------|---------|
    Dm                  G
e|---------|---------|--1---1--|---------|
B|--1---1--|--0---0--|---------|--0---0--|
G|----0----|----0----|----0----|----0----|
D|--0------|--0------|---------|---------|
A|---------|---------|---------|---------|
E|---------|---------|--3------|--3------|

e|---------|---------|--0---0--|---------|
B|--1---1--|--0---0--|---------|--0---0--|
G|----0----|----0----|----0----|----0----|
D|---------|---------|---------|---------|
A|--3------|--3------|--3------|--3------|
E|---------|---------|---------|---------|

Verse: [There's only a synthesizer but with these chords
you can play some arpeggios… Or would also be nice if one
guitar plays the chords and other one the arpeggios… just my opinion]

Chords:
    C  G  A A7sus F  Dm Em7
e|--0--3--0--0----1--1--0---|
B|--1--0--2--3----1--3--3---|
G|--0--0--0--0----2--2--0---|
D|--2--0--2--2----3--0--2---|
A|--3--2--0--0----3-----2---|
E|-----3----------1-----0---|

>Verse I:
C                        F
 You say you wander your own land
     Dm                      G
But when I think about it I don't see how you can…

e|---------|---------|--0---0--|---------|
B|--1---1--|--0---0--|---------|--0---0--|
G|----0----|----0----|----0----|----0----|
D|---------|---------|---------|---------|
A|--3------|--3------|--3------|--3------|
E|---------|---------|---------|---------|

       C                           F
You're aching, you're breaking and I can see the pain in your eyes
      Dm                       G
Says "Everybody's changing and I don't know why…"

    Am7      A7sus2 or something...
e|---------|---------|
B|--1---1--|--0---0--| x2
G|----0----|----0----|
D|---------|---------|
A|--0------|--0------|
E|---------|---------|

>Chorus:
Chorus:
F           G     C                      F
  So little time, try to understand that I'm
Dm                            G                   Em                  
Trying to make a move just to stay in the game, I try to stay awake and
  A7        A7sus A7
remember my name, but...
Dm                       G 
Everybody's changing and I don't feel the same…

e|---------|---------|--0---0--|---------|
B|--1---1--|--0---0--|---------|--0---0--|
G|----0----|----0----|----0----|----0----|
D|---------|---------|---------|---------|
A|--3------|--3------|--3------|--3------|
E|---------|---------|---------|---------|

e|---------|---------|    |--1---1--|---------|
B|--3---3--|--0---0--| x3 |---------|--0---0--|
G|----0----|----0----|    |----0----|----0----|
D|---------|---------|    |---------|---------|
A|---------|---------|    |---------|---------|
E|--0------|--0------|    |--3------|--3------|

>Verse II:
       C                                        F
You're gone from here, soon you will disappear, fading into beautiful light
       Dm                       G
'Cause everybody's changing and I don't feel right…

Chorus:
F           G     C                      F
  So little time, try to understand that I'm
Dm                            G                   Em                  
Trying to make a move just to stay in the game, I try to stay awake and
  A7        A7sus A
remember my name, but...
Dm                       G 
Everybody's changing and I don't feel the same…

Bridge:
e|---------|---------|--0---0--|---------|
B|--1---1--|--0---0--|---------|--0---0--|
G|----0----|----0----|----0----|----0----|
D|---------|---------|---------|---------|
A|--3------|--3------|--3------|--3------|
E|---------|---------|---------|---------|

e|---------|---------|--0---0--|---------|
B|--1---1--|--0---0--|---------|--0---0--|
G|----0----|----0----|----0----|----0----|
D|--3------|--3------|--3------|--3------|
A|---------|---------|---------|---------|
E|---------|---------|---------|---------|

e|---------|---------|--1---1--|---------|
B|--1---1--|--0---0--|---------|--0---0--|
G|----0----|----0----|----0----|----0----|
D|--0------|--0------|---------|---------|
A|---------|---------|---------|---------|
E|---------|---------|--3------|--3------|

e|---------|---------|---------|--0--1--3-5--|<-The '5' is at the time
B|--0---0--|--1-0-1--|--3-1-3--|-------------|  the chorus starts…
G|----2----|---------|---------|-------------|
D|---------|---------|---------|-------------|
A|--0------|--0------|--0------|--0----------|
E|---------|---------|---------|-------------|

F           G     C                      F
  So little time, try to understand that I'm
Dm                            G                   Em                  
Trying to make a move just to stay in the game, I try to stay awake and
  A7        A7sus A
remember my name, but...
Dm                       G 
Everybody's changing and I don't feel the same…

End:
  Am7         A7sus2 or something...
e|---------|---------|
B|--1---1--|--0---0--| x2
G|----0----|----0----|
D|---------|---------|
A|--0------|--0------|
E|---------|---------|

       Dm                       G                      C
Oh...! Everybody's changing and I don't feel the same…

--------------------------------------------------------------------------

Couple of corrections. Mail me if you wanna comment or ask a tab or anything: 
Maybe yo wanna hear my own cover of the intro,
it's in my MP3s in my profile, I play it with capo on 3rd fret :)

GOD bl3s5 u… j:053[d:]montNgro
        
Viva the Brit Piano PopRock!
            

comments powered by Disqus
↑ Back to top | Keane Tabs for Everybody's Changing. Lyrics for acoustic guitar and electric guitar. Tablatures and chords are parodies/interpretations of the original songs. You may use it for private study, scholarship, research or language learning purposes only