» » »

Keane, Everybody's Changing Tabs (ver.2)

Artists:  A B C D E F G H I J K L M N O P Q R S T U V W X Y Z # 

Everybody's Changing Tabs (ver.2)

Keane Tabs
Rating:
0/5 (0 votes)
Everybody's Changing lessons Tabs too difficult? Try these video lessons and learn fast
                this my new tab.. n yeah this song is about 2 years ago..
enjoy

intro

|--------------------12-12-12-----------|
|--13-13-13-12-12-12----------12-12-12--|
|---------------------------------------|
|---------------------------------------|
|---------------------------------------|
|---------------------------------------| 2x

|--------------------13-13-13----------|
|--13-13-13-12-12-12----------12-12-12-|
|--------------------------------------|
|--------------------------------------|
|--------------------------------------|
|--------------------------------------|

|--------------------12-12-12-------------|
|--13-13-13-12-12-12----------12-12-12-13-|
|-----------------------------------------|
|-----------------------------------------|
|-----------------------------------------|
|-----------------------------------------|

You say you wander your own land
But when I think about it
I don't see how you can

|--------------------12-12-12-------------|
|--13-13-13-12-12-12----------12-12-12-13-|
|-----------------------------------------|
|-----------------------------------------|
|-----------------------------------------|
|-----------------------------------------|

You're aching, you're breaking
And I can see the pain in your eyes
Since everybody's changing
And I don't know why.

|-----------------------------------------|
|--13-13-13-12-12-12-13-13-13-12-12-12-10-|
|-----------------------------------------|
|-----------------------------------------|
|-----------------------------------------|
|-----------------------------------------|

So little time
Try to understand that I'm
Trying to make a move just to stay in the game
I try to stay awake and remember my name
But everybody's changing
And I don't feel the same.

|--------------------13-13-13----------|
|--13-13-13-12-12-12----------12-12-12-|
|--------------------------------------|
|--------------------------------------|
|--------------------------------------|
|--------------------------------------|

|--------------------------------------------------------13-13-13-------------|
|--15-15-15-12-12-12-15-15-15-12-12-12-15-15-15-12-12-12----------12-12-12-13-|
|-----------------------------------------------------------------------------|
|-----------------------------------------------------------------------------|
|-----------------------------------------------------------------------------|
|-----------------------------------------------------------------------------|

You're gone from here
Soon you will disappear
Fading into beautiful light
'cause everybody's changing
And I don't feel right.


|-----------------------------------------|
|--13-13-13-12-12-12-13-13-13-12-12-12-10-|
|-----------------------------------------|
|-----------------------------------------|
|-----------------------------------------|
|-----------------------------------------|

So little time
Try to understand that I'm
Trying to make a move just to stay in the game
I try to stay awake and remember my name
But everybody's changing
And I don't feel the same.

-solo

|--------------------12-12-12-----------|
|--13-13-13-12-12-12----------12-12-12--|
|---------------------------------------|
|---------------------------------------|
|---------------------------------------|
|---------------------------------------| 2x

|--------------------13-13-13----------|
|--13-13-13-12-12-12----------12-12-12-|
|--------------------------------------|
|--------------------------------------|
|--------------------------------------|
|--------------------------------------|

|--------------------------------13-15-17-|
|--13-10-12-13-12-13-15-13-15-17----------|
|-----------------------------------------|
|-----------------------------------------|
|-----------------------------------------|
|-----------------------------------------|

So little time
Try to understand that I'm
Trying to make a move just to stay in the game
I try to stay awake and remember my name
But everybody's changing
And I don't feel the same.

|-----------------------------------------|
|--13-13-13-12-12-12-13-13-13-12-12-12-10-|
|-----------------------------------------|
|-----------------------------------------|
|-----------------------------------------|
|-----------------------------------------|

Ooo...
Everybody's changing
And I don't feel the same.
            
Submit corrections

comments powered by Disqus
↑ Back to top | Keane Tabs for Everybody's Changing. Lyrics for acoustic guitar and electric guitar. Tablatures and chords are parodies/interpretations of the original songs. You may use it for private study, scholarship, research or language learning purposes only