» » »

Kashmir, Miss You Tabs (ver.3)

Artists:  A B C D E F G H I J K L M N O P Q R S T U V W X Y Z # 

Miss You Tabs (ver.3)

Kashmir Tabs
 Rating:
4.4/5 (7 votes)
Miss You lessons Tabs too difficult? Try these video lessons and learn fast
1
                SO here it is the BEST song ever written by the best band ever!!!!

HEAVY LICK!!
e-----------------------------------------------------------------------|
b-----------------------------------------------------------------------|
g/12--12--12--12--12/11-11-11-11-11-/-12-12--12--12--12-/-9--9--9--9--9-|
d-----------------------------------------------------------------------|
a/10--10--10--10--10/9--9--9--9--9-/-10--10--10--10--10-/-7--7--7--7--7-|
e-----------------------------------------------------------------------|

e----------------------------------------------------------------|
b----------------------------------------------------------------|
g-/-11-11-11-11-11-11-11-11-11-11-11-11-11/7-7--7--7--7-/--------|and just continue this part
d----------------------------------------------------------------|a couple of times, and with
a-/-9--9--9--9--9--9--9--9--9--9--9--9--9/5--5--5--5--5-/--------|lot of distortion!!!
e----------------------------------------------------------------|

                      This is how the verse goes, with only a little distortion
Em7         G    Cadd9     A7sus4
 there's a shark deep down under
Em7  G        Bm7
     i try to call her name
Em7      G     Cadd7    A7sus4
 but the dark waters between us
Em7  G           Bm7
     makes me call in vain


    Cadd9           Em7            Cadd9            D    D
I'm surfing on the surface with my fingers in the water

Em7       G     Cadd9    A7sus4
 but she seems to have lost her
Em7  G           Bm7
     interest in meat

   Chorus, with distortion.

D             Cadd9   G
I miss you all the time
D             Cadd9      G
though you sit next to me
A7sus4                 G
i hope you feel hust fine
    Cadd9        G
wherever you may be
    Cadd9            Em7
whatever's in your way

SECOND VERSE, same chords as the first:

among the few indulgent sailors

I am the patient one

you're the muse

so involved with

the fingers in your hair

chorus:
D           Cadd9   G
I miss you all the time
D           Cadd9   G
though you sit next to me
A7sus4              G
I hope you feel just fine
  Cadd9      G
wherever you may be
   Cadd9        G
whatever's in your way

"Heavy Lick"

Bridge:
Cadd9      Em7
I pray for you
Cadd9     Em7  f#  g   D
for your return
Cadd9      G   Cadd9  G  Cadd9  D
in me you will  for--e---ver   burn

Last "chorus"
D5muted          Cadd9  G  D
  I miss you all the time
                  Cadd9 G  A7sus4
though you sit next to me
                       G
I hope you feel just fine
  Cadd9          G
wherever you may be
  Cadd9          G
whatever's in your way

  Cadd9         D        Dsus4   D
'cause I can't seem to reach you


g-9-9--9--7-7--7--7-7--7--5-5--5--7-7--7--5-5--5--4-4--4--7-7--7--|
b--8--8-8--7--7-7--8--8-8--5--5-5--7--7-7--7--7-7--7--7-7--7--7-7-|
e----7-------7-------7-------5-------5-------5-------5-------5----|


g-9-9--9--7-7--7--7-7--7--5-5--|  an then the
b--8--8-8--7--7-7--8--8-8--5---|  HEAVY "lick"
e----7-------7-------7-------5-|   again starting from the high F#


a-/-9--9--9--9--9--9--9--9--9--9--9--9--9/5--5--5--5--5-/-----|
d-------------------------------------------------------------|
g-/-11-11-11-11-11-11-11-11-11-11-11-11-11/7-7--7--7--7-/-----|

continue the heavy lick until you are satisfied!!!


Em7    0-2-2-0-3-3-|
G      3-2-0-0-3-3-|
Cadd9  x-3-2-0-3-3-|
A7sus4 x-0-2-2-3-3-|
D      x-x-0-2-3-2-|
            
Submit corrections

comments powered by Disqus
↑ Back to top | Kashmir Tabs for Miss You. Lyrics for acoustic guitar and electric guitar. 1 Tablatures and chords are parodies/interpretations of the original songs. You may use it for private study, scholarship, research or language learning purposes only