>
 >
Miss You (Slight Return)

Miss You (Slight Return) Guitar Tabs

Kashmir - Miss You (Slight Return) chords, tabs, tablatures, lyrics

Guitar lessons | Add/correct | Request | Top 50 tabs Artists:  A B C D E F G H I J K L M N O P Q R S T U V W X Y Z 0-9

Miss You (Slight Return) Guitar Tabs – Kashmir

CD, Sheet music, Poster

Do you like Miss You (Slight Return)? Share with your friends now
Tabs
Kashmir 
                     Miss you (Slight return)    
                            By Clas
INTRO/VERS

   Dsus2  Fmaj6  Bbmaj7#11  Gm6  Dm  F6  A7sus  A7
e--0------0------0----------0----1---1---0------0--  -g-
h--3------3------3----------3----3---3---3------2--  -e-
g--2------2------2----------3----2---2---0------0--  -n-
d--0------3------3----------0----0---3---2------2--  -t-
a----------------1-----------------------0------0--  -a-
e---------------------------3----------------------  -g-
   There´s a shark...

B-PART

   Bbmaj7  Dm  Bbmaj7  F  C  Dm  F6  Bbmaj7#11  Gm6  Dm  F6  A7sus  A7
e--1-------1---1-------1--0--1---1---0----------0----1---1---0------0-
h--3-------3---3-------1--1--3---3---3----------3----3---3---3------2-
g--2-------2---2-------2--0--2---2---2----------3----2---2---0------0-
d--3-------0---3-------3--2--0---3---3----------0----0---3---2------2-
a--1-----------1-------3--3----------1-----------------------0------0-
e----------------------1------------------------3---------------------
   Surfing on the...

Chorus

   Bbmaj7#11  A7sus  A7  Dm  Dm/c  G7  Bbm  F  Bbm  F  Bbm
e--0----------0------0---1---1-----1---1----1--1----1--1----
h--3----------3------2---3---3-----3---2----1--2----1--2----
g--2----------0------0---2---2-----0---3----2--3----2--3----
d--3----------2------2---0---0-----0---3----3--3----3--3----
a--1----------0------0-------3-----2---1----3--1----3--1----
e---------------------------------(3)-------1-------1-------
   I miss you all the time...

INTERLUDE 

e--------5-----5-------5-----5-------5-----5-------3-----3------- -
h----6-----6-------5-----5-------6-----6-------6-----6-------6--- -
g--7---7-----7---5---5-----5---5---5-----5---3---3-----3---5---5- -
d---------------------------------------------------------------- -
a---------------------------------------------------------------- -
e---------------------------------------------------------------- -

e--3-----3-----3-----3-----3-----3-----3-----3-  -g-
h----6-----6-----6-----6-----6-----5-----5-----  -e-
g------5-----5-----5-----5-----5-----5-----5---  -n-
d----------------------------------------------  -t-
a----------------------------------------------  -a-
e----------------------------------------------  -g-

Last Chorus

   C    Bb  F  C  Bb  F  Gm  F  Bbsus2 -m  F  Bbsus2 -m  F  Bbm -sus2
e--0----6---1--0--6---1--3---1--1--1-------1--1--1-------1--1--1-----
h--1----6---1--1--6---1--3---1--1--2-------1--1--2-------1--2--1-----
g--0----7---2--0--7---2--3---2--3--3-------2--3--3-------2--3--3-----
d--2----8---3--2--8---3--5---3--3--3-------3--3--3-------3--3--3-----
a--3----8---3--3--8---3--5---3--1--1-------3--1--1-------3--1--1-----
e-------6---1-----6---1--3---1-------------1-------------1-----------
 ..burn. I miss you all...





Comments


Popular Kashmir tabs & chords
Victoria Bass Tabs
Bewildered In The City Chords
Mom In Love, Daddy In Space 1 Chords
Beamed Intro Tabs
Lollypork Stomp Tabs
Stand Tabs
The New Gold Tabs
Vote 4 Dick Taid Tabs
Cursed Of Being A Girl Ukulele
Mouthful Of Wasps Ukulele


Song lyrics



↑ Back to top | Tablatures and chords are parodies/interpretations of the original songs. You may use it for private study, scholarship, research or language learning purposes only
© 2014 AZChords.com Contact us | Privacy policy | DMCA | Add/correct tabs | Request tabs | Top 50 tabs