>
 >
Miss You 1

Miss You 1 Guitar Tabs

Kashmir - Miss You 1 chords, tabs, tablatures, lyrics

Guitar lessons | Add/correct | Request | Top 50 tabs Artists:  A B C D E F G H I J K L M N O P Q R S T U V W X Y Z 0-9

Miss You 1 Guitar Tabs – Kashmir

CD, Sheet music, Poster

Do you like Miss You 1? Share with your friends now
Bass TabsBass Tabs v2ChordsChords v2TabsTabs v2Tabs v3Ukulele
    _________________
   / Kashmir        /  Denne her simple kærlighedssang handler om en fyr der
  / Miss You       /  er forelsket i en tøs, som (selvfølgelig ;) ikke er
 / The Good Life  /  forelsket i ham. Nu er hun væk, men han vil altid huske
/________________/  hende og elske hende uanset hvor lang tid der går!

Intro/The Riff:
-------------------------------------------------------------------------------
For de helt nye kaldes de her akkorder for oktaver, som bare betyder at man
spiller to af den samme tone med en oktavs mellemrum. Man skal lige øve sin
dæmpe-teknik lidt for ikke at klinge de andre strene også. Der er sikkert en
del forskellige måder at gøre det på, men jeg spiller den dybe tone med
pegefingeren og den lyse med lillefingeren. e- og b-strengen dæmper jeg med
lillefingeren, der ligger fladt og afslappet henover dem, mens at jeg dæmper
d-strengen med pegefingeren. Den tykke E-streng dæmper jeg enten med
langefingeren eller spidsen af pegefingeren.
-------------------------------------------------------------------------------


Gtr-1-------------------------------------------------|
------------------------------------------------------|
----12----11----12-----9----11----11----11-----7------|
------------------------------------------------------|
----10-----9----10-----7-----9-----9-----9-----5------|
------------------------------------------------------|

Gtr-2-------------------------------------------------|
------------------------------------------------------|
-----9----------------------------------------11------|
-(2)-------9-----5----10----12----10-----9------------|
-----7-----------------------------------------9------|
-(0)-------7-----3-----8----10-----8-----7------------|
*akkorden i parantes er sådan Henrik Lindstrand spiller E'et live


Hvis du kun er én guitarist, er det her mit bedste bud på at kombinere begge
guitarer, men det er en anelse svært. Tonerne i parentes kan sagtens droppes:
                                         |den er fed!
-----------------------------------------V---------------------|
---------------------------------------------------------------|
---12-----11------7------9------11------11-----11------11------|
--(14)----(9)-----5----(10)----(12)----(10)----(9)----(12)-----|
---10------9------5------7-------9-------9------9-------9------|
----0------7------3------8------10-------8------7------10------|


Vers:
  pm.                                                       Bsus4b9
----.-7-----------------------7----------------10---9----- --0------|
--.-8-8--------------------8--8------------------7----7--- --0------|
--9---9-------------------9-9-9-------------7-----7----7-- --5------|
------------------------------------------9--9------------ --4------|
----------------3---3-0----------------------------------- --2------|
--0-------0-3-------------0-------0-3-----7--------------- ---------|
 de dybe toner er bassen spillet en oktav over, resten er en clean
 guitar og en wah wah pedal. Det her 1. vers bliver gentaget.
 2. vers der kommer efter C-stykket ender på den skæve akkord istedet


live lader Kasper distortionen blive på og spiller det her istedet:
  pm. Em7           G       Cadd9   Am7      Em7     G        Bmadd11
------3-------------3-------3-------3--------3-------3------------------0------|
------3-------------3-------3-------1--------3-------3--------------3-----3----|
------0-------------0-------0-------0--------0-------0----------------4-----4--|
------2-------------0-.--.--2---.-.-2--------2-------0-----------4-------------|
--.-.-2---------.-.-2-3--3--3---0-0-0----.-.-2---.-.-2--------2----------------|
--0-0-0---------3-3-3--------------------0-0-0---3-3-3-------------------------|
      There's a shark deep down under,         I try to call her name


C-stykke:
 Cmaj7            Em            Cmaj7          Dsus4  D
---0--------------0---------------0--------------3----2---|
---0--------------0---------------0--------------3----3---|
---0--------------0---------------0--------------2----2---|
---2--------------2---------------2--------------0----0---|
---3--------------2---------------3-----------------------|
------------------0---------------------------------------|
   Surfing on the surface with my fingers in the wa - ter


2. Vers:
(se 1. vers)


Omkvæd:

   D                  Cadd9   G/b   D                     Cadd9   G/b
---2--------------------3------3----2-----------------------3------3----|
---3--------------------3------3----3-----------------------3------3----|
---2--------------------0------0----2-----------------------0------0----|
---0--------------------2------0----0-----------------------2------0----|
------------------------3------2----------------------------3------2----|
------------------------------------------------------------------------|
     I miss you all the time,          when you sit next to me,


  Am7                     G         Cadd9          G      Cadd9
---3----------------------3-----------3------------3--------3-----------------|
---1----------------------3-----------3------------3--------3-----------------|
---0----------------------0-----------0------------0--------0-----------------|
---2----------------------0-----------2------------0--------2-----------------|
---0----------------------2-----------3------------2--------3-----------------|
--------------------------3------------------------3--------------------------|
     I hope you feel just fine, where ever you may be, what ever's in your...


Mellemspil:
en omgang vers


3. Vers:
to omgange vers, spil den skæve akkord anden gang


Omkvæd:
magen til før, men der hvor mellemspillet startede fortsætter det:

   Dsus4     D
-----3-------2-----|
-----3-------3-----|
-----2-------2-----|
-----0-------0-----|
-------------------|
-------------------|
  ...way__________


The Riff: 2x


D-stykke:
 Cmaj7        G6 Cmaj7          Em     Cmaj7      G   Cadd9  G Cadd9 D pm.
---0-----------0---0------------0-----0--0--------3-----3----3---3---.-.-.-.-.-|
---0-----------0---0------------0-----0--0--------3-----3----3---3---3-3-3-3-3-|
---0-----------0---0------------0-----0--0--------0-----0----0---0---2-2-2-2-2-|
---2-----------0---2------------2-----0--2--------0-----2----0---2---0-0-0-0-0-|
---3-----------2---3------------2--------3--------2-----3----2---3-------------|
---------------3----------------0-2-3-------------3----------3-----------------|
 I'll pray for you,  for your return,   in me you will for - e - ver burn_____


Omkvæd:
magen til anden omkvæd (dvs. forstæt på Dsus4 & D). anden guitaren spiller
de her bends istedet:

 Cadd9  G/b   D     Cadd9  G/b    Am7   ...     Dsus4  D
----------------------------------------------------------|
--1-----3-----8------1-----3------8-----(*)-----10--------|
--3b5---5b7--10b12---3b5---5b7---11b12----------12b14-----|
----------------------------------------------------------|
----------------------------------------------------------|
----------------------------------------------------------|
(*) slå videre på bendet gennem de næste akkorder


Breakdown:
en distorted guitar fader ud med en volume pedal

    G                 Bm                G                 C
---------15----------------14----------------15----------------12-----------|
-----12------12--12----12------12--12----15------15--15----13------13--13---|
---12--12--12--12----11--11--11--11----12--12--12--12----12--12--12--12-----|
----------------------------------------------------------------------------|
----------------------------------------------------------------------------|
----------------------------------------------------------------------------|

   D/d               D/c               D/b               D/d
---------10------10--------10------10--------10------10--------10-------10--|
-----10------10--------10------10--------10------10--------10------10-------|
---11--11--11--11----11--11--11--11----11--11--11--11----11--11--11---11----|
--(12)--------------(10)---------------(9)--------------(12)----------------|
----------------------------------------------------------------------------|
----------------------------------------------------------------------------|

    G                 Bm                G                 C         [D]
---------15----------------14----------------15----------------12---34*-----|
-----12------12--12----12------12--12----15------15--15----13---------------|
---12--12--12--12----11--11--11--11----12--12--12--12----12--12-------------|
----------------------------------------------------------------------------|
----------------------------------------------------------------------------|
----------------------------------------------------------------------------|
Du kan denne her tone på to måder på guitaren:
    - enten ved at bruge en octaver og anlså bånd 22 på den tynde e-streng
    - eller ved at finde oktav-harmonic'en over bånd 22, som ligger lige
      bag den miderste pick-up - dvs. præcis halvvejs fra bånd 22 til broen,
      for harmonic'en en oktav over ligger ALTID på midten af den anslåede
      strengs længde, så midten af en åben streng er fx bånd 12.


Outro:
spil sidste halvdel af The Riff'et og så bare gentag det, til det fader ud i
breakdown riffet, som "akkord-mæssigt" bare er en 'clean' udgave af det.


Live Outro/Solo:
på Aftermath dvd'en slutter det hele i en solo istedet, det kan godt være at
antallet af anslag ikke helt stemmer, men tonerne og det grundlæggende er der:

-------------------------------------------------------------------------------|
-------------------------------------------------------------------------------|
-12-12-12-12-12---16-16-17-16-14-12-12---14-16-17-16-12-12---12/17-17-17-17-16-|
-------------------------------------------------------------------------------|
-10-10-10-10-10---14-14-15-14-12-10-10---12-14-15-14-10-10---10/15-15-15-15-14-|
-------------------------------------------------------------------------------|


-------------------------------------------------------------------------------|
-------------------------------------------------------------------------------|
-17-17-17-17-16-17-17-17-17-17/19-19-19-17----16-12-12-12-14-16-18-16-14-12-12-|
-------------------------------------------------------------------------------|
-15-15-15-15-14-15-15-15-15-15/17-17-17-15----14-10-10-10-12-14-16-14-12-10-10-|
--------------------------------------------0----------------------------------|


-------------------------------------------------------------------------------|
-------------------------------------------------------------------------------|
-14-16-17-16-12-12-12/17-17-17-16-17/19-19-------16/17-17-17-16-17/19-19-------|
-------------------------------------------------------------------------------|
-12-14-15-14-10-10-10/15-15-15-14-15/17-17-------14/15-15-15-14-15/17-17-------|
--------------------------------------------0-0---------------------------0-0--|


-------------------------------------------------------------------------------|
-17-----------17-----------17-----------------------17-------------------17----|
-19b21r19b21--19b21r19b21--19b21r19b21r19-17--------19b21-16h19p16-------19b21-|
---------------------------------------------19p17-----------------19p17-------|
-------------------------------------------------------------------------------|
-------------------------------------------------------------------------------|


-12-12-14-15-14-12-12-14-15-14-12-12-14-15-14-12-12-12-12--12------------------|
-12-12-12-12-12-12-12-12-12-12-12-12-12-12-12-12-12-12-12--15b17r15b17---------|
-12-12-12-12-12-12-12-12-12-12-12-12-12-12-12-12-12-12-12----------------------|
-------------------------------------------------------------------------------|
-------------------------------------------------------------------------------|
-------------------------------------------------------------------------------|


-14-12-12-12-12-12-12-12-12-12-12-12-12-12-12-12-12-12-12----------------------|
-12-12-15-15-15-13-13-12-13-12-12-12-13-13-13-12-12-12-12-12----12----12-------|
-12-12-12-12-12-12-12-12-12-12-12-12-12-12-12-12-12-14-12-14b16-14b16-14b16----|
-------------------------------------------------------------------------------|
-------------------------------------------------------------------------------|
-------------------------------------------------------------------------------|


-------------------------------------------------------------------------------|
-12----12----12----12----12----12-----12-12-12-12-12-12-12---------------------|
-14b16-14b16-14b16-14b16-14b16-14b16--14-14-12-12-11-11-11b12r11---------------|
-------------------------------------------------------------------------------|
-------------------------------------------------------------------------------|
------------------------------------------------------------------0b*-[feed]---|
*bend ved at presse ned på det stykke af strengen mellem nakken og stemmeskruen


- 8th /August /06





Comments


Popular Kashmir tabs & chords
Ether Bass Tabs
Piece Of The Sun Chords
Piece Of The Sun 1 Chords
Small Poem Of Old Friend Chords
Art Of Me Tabs
Cynic 3 Tabs
Jewel Drop Intro Tabs
Petite Machine Tabs
Shes Made Of Chalk 1 Tabs
The Push Tabs


Song lyrics



↑ Back to top | Tablatures and chords are parodies/interpretations of the original songs. You may use it for private study, scholarship, research or language learning purposes only
© 2014 AZChords.com Contact us | Privacy policy | DMCA | Add/correct tabs | Request tabs | Top 50 tabs