» » »

Miss You Bass tabs (ver.1)

Artists:  A B C D E F G H I J K L M N O P Q R S T U V W X Y Z # 

Miss You Bass tabs (ver.1)

Kashmir
Rating:
0/5 (0 votes)

Hard to play? Try these video lessons and learn fast.
                Intro
----------------------------------------------------------------------------|
----------------------------------------------------------------------------|
-----------22-2222-----------33-3333--55-5555--33-3333-22-2222--55-5555-----| x2
--00-0000-----------33-3333-------------------------------------------------|

Verse - (Play staccato)/(using somekind of synth in the verses on the album)
----------------------------------------------------------------------------|
----------------------------------------------------------------------------|
-----------3---30------------2---2--------------3---30---30----------2---2--|
-0---03-------------0---03-------------0---03--------------30---03----------|

Fill 1
----------------------------------------------------------------------------|
----------------------------------------------------------------------------|
-3---33------------3---33---------------------------------------------------|
----------0---00------------3---33------------------------------------------|

Verse
----------------------------------------------------------------------------|
----------------------------------------------------------------------------|
-----------3---30------------2----2-----------------------------------------|
-0---03-------------0---03--------------------------------------------------|

Chorus
----------------------------------------------------------------------------|
----------------------------------------------------------------------------|
-5-55--53-2----5-55--53-2----0--00-----33----33-----------------------------|
------------3-------------3---------3-----3---------------------------------|

Verse (Play staccato)/(Still with the synth)
----------------------------------------------------------------------------|
----------------------------------------------------------------------------|
-----------3---30------------2---2--------------3---30------------2---2-----|
-0---03-------------0---03-------------0---03------------0---03-------------|

----------------------------------------------------------------------------|
----------------------------------------------------------------------------|
-----------3---30---30---------2---3----------------------------------------|
-0---03---------------30---03-----------------------------------------------|

Chorus
----------------------------------------------------------------------------|
----------------------------------------------------------------------------|
-5-55--53---2---5-55--53---2---0--00------33-----33----5555555555555--------|
---------------------------------------3------3-----------------------------|

Interlude (with a bit of my own interpretation)
----------------------------------------------------------------------------|
----------------------------------------------------------------------------|
-------222--2----333---35-5---0-h3-3---0-h2-2/--555-------------------------| x2
--0-0--------33-------------------------------------------------------------|

Bridge
----------------------------------------------------------------------------|
----------------------------------------------------------------------------|
-3-33--------3-33------------3------33-----33---5555555555555---------------|
-------3-33---------0-1-2-3------3------3-----------------------------------|

Chorus
----------------------------------------------------------------------------|
----------------------------------------------------------------------------|
-5-55--53---2---5-55--53---2---0--00------33-----33-----33--5555555555555---|
---------------------------------------3------3------3----------------------|

Silent solo
----------------------------------------------------------------------------|
----------------------------------------------------------------------------|
----------------------------------------------------------------------------|
----------------------------------------------------------------------------|

DING

Outro till fade out
----------------------------------------------------------------------------|
----------------------------------------------------------------------------|
-------222--2----333---35-5---0-h3-3---0-h2-2/--555-------------------------|
--0-0--------33-------------------------------------------------------------|
            
Hard to play? Try these video lessons and learn fast. | Correct




comments powered by Disqus
↑ Back to top | Tablatures and chords are parodies/interpretations of the original songs. You may use it for private study, scholarship, research or language learning purposes only