>
 >
Miss You

Miss You Guitar Tabs

Kashmir - Miss You chords, tabs, tablatures, lyrics

Guitar lessons | Add/correct | Request | Top 50 tabs Artists:  A B C D E F G H I J K L M N O P Q R S T U V W X Y Z 0-9

Miss You Guitar Tabs – Kashmir

CD, Sheet music, Poster

Do you like Miss You? Share with your friends now
Bass TabsBass Tabs v2ChordsChords v2TabsTabs v2Tabs v3Ukulele
    __________________________
   /Kashmir                  / I can't figure out which version of miss you is
  /Miss You (slight return) /  the best one, as they're incomparable and have
 /Home Dead EP             /   two different terms, but one thing is for sure,
/_________________________/    the melody is great composed in first place!


INTRO:
  1   +   2   +   3   +   4   +     1   +   2   +   3   +   4   +
|---------0---0-0---------0---0-0-|---------0---0-0-----0---0-0-0---|
|---------3---3-3---------3---3-3-|---------3---3-3-----3---3-3-3---|
|-----2---2---2-2-----2---2---2-2-|---------2---2-2-----2---2-2-2---|
|-0-------0-------3-------3-------|-----3---3---3-3-----0---0---0---|
|---------------------------------|-1-------------------------------|
|---------------------------------|-----------------3---------------|

|---------1---1-1---------1---1-1-|---------0---0-0-0-0-0---0-0-0---|
|---------3---3-3---------3---3-3-|---------3---2-3-2-3-2---2-0-2---|
|-----2---2---2-2-----2---2---2-2-|---------0---0-0-0-0-0---0-0-0---|
|-0-------0-------3-------3-------|-2-------2---2-2-2-2-2-------2---|
|---------------------------------|-0-------0---0---0---0-------0---|
|---------------------------------|---------------------------------|


1st VERSE:
   1   +   2   +   3   +   4   +     1   +   2   +   3   +   4   +
||---------0---0-0---------0---0-0-|---------0---0-0-----0---0-0-0---|
||---------3---3-3---------3---3-3-|---------3---3-3-----3---3-3-3---|
||-----2---2---2-2-----2---2---2-2-|---------2---2-2-----2---2-2-2---|
||-0-------0-------3-------3-------|-----3---3---3-3-----0---0---0---|
||---------------------------------|-1-------------------------------|
||---------------------------------|-----------------3---------------|
  there's a shark deep down under
  but the dark waters between us

 |---------1---1-1---------1---1-1-|---------0-------0-x-0-----0-0---||
 |---------3---3-3---------3---3-3-|---------3---2-2-2-x-2---2-0-2---||
 |-----2---2---2-2-----2---2---2-2-|---------0---0-0-0-x-0---0-0-0---||
 |-0-------0-------3-------3-------|-2-------2---2-2-2-x-2-------2---||
 |---------------------------------|-0-------0-------0---0-------0---||
 |---------------------------------|---------------------------------||
  i try to call her name
  makes me call in vain


PRECHORUS:
  1   +   2   +   3   +   4   +     1   +   2   +   3   +   4   +
|---------1---1-1---------1---1-1-|---------1---1-1---------1---1-1-|
|---------3---3-3---------3---3-3-|---------3---3-3---------3---3-3-|
|-----2---2---2-2---------2---2-2-|-----2---2---2-2---------2---2-2-|
|-3-------3---------------3-------|-0-------0-------0---0---0-------|
|-----------------1---------------|---------------------------------|
|---------------------------------|---------------------------------|
 i'm surfing on the surface

|---------1---1-1---------1---1-1-|---------1---1-1---------0-0-0-0-|
|---------3---3-3---------3---3-3-|---------1---1-1---------1-1-1-1-|
|---------2---2-2---------2---2-2-|---------2---2-2-0---0---0-0-0-0-|
|-3-------3-------3-------3-------|---------3---3-3-2---2---2-------|
|---------1---------------1-------|-3-------3-------3---3---3-------|
|---------------------------------|-1-------1-----------------------|
 with my fingers in the water

|---------0---0-0---------0---0-0-|---------0---0-0-----0---0-0-0---|
|---------3---3-3---------3---3-3-|---------3---3-3-----3---3-3-3---|
|-----2---2---2-2-----2---2---2-2-|---------2---2-2-----2---2-2-2---|
|-0-------0-------3-------3-------|-----3---3---3-3-----0---0---0---|
|---------------------------------|-1-------------------------------|
|---------------------------------|-----------------3---------------|
 but she seems to have lost her

|---------1---1-1---------1---1-1-|---------0---0-0-0-0-0---0-0-0---|
|---------3---3-3---------3---3-3-|---------3---2-3-2-3-2---2-0-2---|
|-----2---2---2-------2---2---2-2-|---------0---0-0-0-0-0---0-0-0---|
|-0-------0-------3-------3-------|-2-------2---2-2-2-2-2-------2---|
|---------------------------------|-0-------0---0---0---0-------0---|
|---------------------------------|---------------------------------|
 interest in meat


1st  CHORUS:
  1   +   2   +   3   +   4   +     1   +   2   +   3   +   4   +
|---------1---1-1---------1---1-1-|---------0---0-0---------0---0-0-|
|---------3---3-3---------3---3-3-|---------3---2-2---------2---2-2-|
|---------2---2-2---------2---2-2-|---------0---0-0---------0---0-0-|
|-----3---3---------------3-------|-----2---2-------2---2---2---2-2-|
|-1-------1-------1---1---1-------|-0-------0-------0---0---0---0-0-|
|---------------------------------|---------------------------------|
 i miss you all the time

|-1-------1---1-1---------1---1-1-|---------1---1-0-1-0-1---1---0-1-|
|-3-------3---3-3---------3---3-3-|---------3---3-3-3-3-3---3---3-3-|
|-2-------2---------------2---2-2-|---------0---0-0-0-0-0---0---0-0-|
|-0---0-------------------0-------|---------0-------0-------0-------|
|-----------------3---------------|---------------------------------|
|---------------------------------|-3-------------------------------|
 though you sit next to me

|-1-------1---1-1---------1---1-1-|---------1---1-1-1-------1---1-1-|
|-2-------2---2-2-2---2---2---2-2-|---------1---1-1-2-------2---2-2-|
|-3---3---3---3-3-3---3---3---3-3-|---------2---2-2-3-------3---3-3-|
|-3---3---3-------3---3---3-------|---------3-------3-------3-------|
|-1---1-----------1---------------|-3---------------1-------1-------|
|---------------------------------|-1-------------------------------|
 i hope you feel just              fine             wherever you may

|---------1---1-1-1---------------|---------------------------------|
|---------1---1-1-2---------------|---------------------------------|
|-2-------2---2-2-3---------------|---------------------------------|
|-3-------3-------3---------------|---------------------------------|
|-3-------3-------1---------------|---------------------------------|
|-1-------------------------------|---------------------------------|
 be           whatever's in your

|---------0---0-0---------0---0-0-|---------0---0-0-----0---0-0-0---|
|---------3---3-3---------3---3-3-|---------3---3-3-----3---3-3-3---|
|---------2---2-2-----2---2---2-2-|---------2---2-2-----2---2-2-2---|
|-0-------0-------3-------3-------|-----3---3---3-3-----0---0---0---|
|---------------------------------|-1-------------------------------|
|---------------------------------|-----------------3---------------|
 way

|---------1---1-1---------1---1-1-|---------0---0-0-0---3-----3-3-3-|
|---------3---3-3---------3---3-3-|---------3---2-3-2---2-----2-2-2-|
|-----2---2---2-2-----2---2---2-2-|---------0---0-0-0---0-----0-0-0-|
|-0-------0-------3-------3-------|---------2---2-2-2---2-------2---|
|---------------------------------|-0-------0---0---0---0-------0---|
|---------------------------------|---------------------------------|


2nd VERSE:
   1   +   2   +   3   +   4   +     1   +   2   +   3   +   4   +
||---------0---0-0---------0---0-0-|---------0---0-0-----0---0-0-0---|
||---------3---3-3---------3---3-3-|---------3---3-3-----3---3-3-3---|
||-----2---2---2-2-----2---2---2-2-|---------2---2-2-----2---2-2-2---|
||-0-------0-------3-------3-------|-----3---3---3-3-----0---0---0---|
||---------------------------------|-1-------------------------------|
||---------------------------------|-----------------3---------------|
  among the few indulgent sailors
  you're the muse so involved with

 |---------1---1-1---------1---1-1-|---------0-------0-x-0-----0-0---||
 |---------3---3-3---------3---3-3-|---------3---2-2-2-x-2---2-0-2---||
 |-----2---2---2-2-----2---2---2-2-|---------0---0-0-0-x-0---0-0-0---||
 |-0-------0-------3-------3-------|-2-------2---2-2-2-x-2-------2---||
 |---------------------------------|-0-------0-------0---0-------0---||
 |---------------------------------|---------------------------------||
  i am the patient one
  the fingers in your hair


2nd CHORUS:
  1   +   2   +   3   +   4   +     1   +   2   +   3   +   4   +
|---------1-----1---------1---1-1-|---------0---0-0-----0---0-0-0---|
|---------3-----3---------3---3-3-|---------3---2-3-----2---2-2-2---|
|---------2-----2---------2---2-2-|---------0---0-0-----0---0-0-0---|
|---------3---------------3-------|-----2---2-----2-2---2---2---2---|
|-1-------1-------1---1---1-------|-0-------0-------0---0---0---0---|
|---------------------------------|---------------------------------|
 i miss you all the time

|-1-------1---1-1---------1-------|---------1---1-3-1-0-1---1---0-1-|
|-3-------3---3-3---------3-------|---------3---3-3-3-3-3---3---3-3-|
|-2-------2---------------2-------|---------0---0-0-0-0-0---0---0-0-|
|-0-----------------------0-------|---------0-------0-------0-------|
|-----------------3---------------|---------------------------------|
|---------------------------------|-3-------------------------------|
 though you sit next to me

|-1-------1---1-1---------1---1-1-|---------1---1-1-1-------1---1-1-|
|-2-------2---2-2-2---2---2---2-2-|---------1---1-1-2-------2---2-2-|
|-3---3---3---3-3-3---3---3---3-3-|---------2---2-2-3-------3---3-3-|
|-3---3---3-------3---3---3-------|---------3-------3-------3-------|
|-1---1-----------1---------------|-3---------------1-------1-------|
|---------------------------------|-1-------------------------------|
 i hope you feel just              fine             wherever you may

|---------1---1-1-1---------------|---------------------------------|
|---------1---1-1-2---------------|---------------------------------|
|-2-------2---2-2-3---------------|---------------------------------|
|-3-------3-------3---------------|---------------------------------|
|-3-------3-------1---------------|---------------------------------|
|-1-------------------------------|---------------------------------|
 be           whatever's in your


INTERLUDE:
  1   +   2   +   3   +   4   +     1   +   2   +   3   +   4   +
|-------5-------5-------5-------5-|-------5-------5-------3-------3-|
|---6-------6-------5-------5-----|---6-------6-------6-------6-----|
|-7---7---7---7---5---5---5---5---|-5---5---5---5---3---3---3---3---|
|---------------------------------|---------------------------------|
|---------------------------------|---------------------------------|
|---------------------------------|---------------------------------|
 way

|-------3-------3-------3-------3-|-------3-------3-------3-------3-|
|---6-------6-------6-------6-----|---6-------6-------5-------5-----|
|-5---5---5---5---5---5---5---5---|-5---5---5---5---5---5---5---5---|
|---------------------------------|---------------------------------|
|---------------------------------|---------------------------------|
|---------------------------------|---------------------------------|

|-------5-------5-------5-------5-|-------5-------5-------3-------3-|
|---6-------6-------5-------5-----|---6-------6-------6-------6-----|
|-7---7---7---7---5---5---5---5---|-5---5---5---5---3---3---3---3---|
|---------------------------------|---------------------------------|
|---------------------------------|---------------------------------|
|---------------------------------|---------------------------------|

|-------3-------3-------3-------3-|-------3-------3-------3-------3-|
|---6-------6-------6-------6-----|---6-------6-------5-------5-----|
|-5---5---5---5---5---5---5---5---|-5---5---5---5---5---5---5---5---|
|---------------------------------|---------------------------------|
|---------------------------------|---------------------------------|
|---------------------------------|---------------------------------|


BRIDGE:
  1   +   2   +   3   +   4   +     1   +   2   +   3   +   4   +
|---------------------------------|---------------------------------|
|---------------------------------|---------------------------------|
|---------------------------------|---------------------------------|
|---------------------------------|---------------------------------|
|(1)------------------------------|---------------------------------|
|---------------------------------|(1)------------------------------|
 i pray for                        you

|---------------------------------|---------------------------------|
|---------------------------------|---------------------------------|
|---------------------------------|---------------------------------|
|---------------------------------|(0)-------------(2)-----(3)------|
|(1)------------------------------|---------------------------------|
|---------------------------------|---------------------------------|
 for your                       re-turn

|---------------------------------|---------------------------------|
|---------------------------------|---------------------------------|
|---------------------------------|---------------------------------|
|---------------------------------|---------------------------------|
|(1)------------------------------|----------------(1)--------------|
|---------------------------------|(1)------------------------------|
 'cause in me you                  will                          for-

|---------------------------------|-0-------0---0-0-----0-0-0---0-0-|
|---------------------------------|-1-------1---1-1-----1-1-1---1-1-|
|---------------------------------|-0-------0---0-0-----0-0-0---0-0-|
|---------------------------------|-2-------2---2-2-----2-2-2---2-2-|
|----------------(1)--------------|-3-------3---3-3-----3-3-3---3-3-|
|(1)------------------------------|(3)------------------------------|
-ever                              burn           i miss you all the


3rd CHORUS:
  1   +   2   +   3   +   4   +     1   +   2   +   3   +   4   +
|---------6---------------1-------|---------0---------0-0---0-------|
|-6-------6---------------1---1---|-1-------1---------1-1---1-------|
|-7---7---7---7-7-2---2---2---2-2-|-0-------0---------0-0---0-------|
|-8---8---8---8-8-3---3---3---3-3-|-2-------2---------2-2---2-------|
|-8---8---8---8-8-3---3---3---3-3-|-3-------3---------3-3---3-------|
|-6---6---6---6-6-1---1---1---1-1-|---------------------------------|
 time                                         though you sit next to

|---------6---------------1-------|---------3-----------------------|
|-6-------6---------------1-------|-3-------3-----------------------|
|-7-------7---7-7-2-------2-------|-3-------3---------3-3---3---3---|
|-8---8---8---8-8-3---3---3---3-3-|-5---5---5---------5-5---5---5---|
|-8---8---8---8-8-3---3---3---3-3-|-5---5---5---------5-5---5---5---|
|-6---6---6---6-6-1---1---1---1-1-|-3---3---3---------3-3---3---3---|
 me                                             i hope you feel just

|-1-------1---1-1-1-------1---1-1-|-1-------1---1-1-1-------1---1-1-|
|-1-------1---1-1-1-------2---2-2-|-1-------1---1-1-1-------2---2-2-|
|-2-------2---2-2-3-------3---3-3-|-2-------2---2-2-3-------3---3-3-|
|-3-------3---3-3-3-------3---3-3-|-3-------3---3-3-3-------3---3-3-|
|-3-------3---3-3-1-------1---1-1-|-3-------3---3-3-1-------1---1-1-|
|-1-------1---1-1-----------------|-1-------1---1-1-----------------|
 fine             wherever you may be             whatever's in your

|-1-------1---1-1-1---------------|---------------------------------|
|-1-------1---1-1-2---------------|---------------------------------|
|-2-------2---2-2-3---------------|---------------------------------|
|-3-------3---3-3-3---------------|---------------------------------|
|-3-------3---3-3-1---------------|---------------------------------|
|-1-------1---1-1-----------------|---------------------------------|
 way        'cause i can't seem to


OUTRO:
   1   +   2   +   3   +   4   +     1   +   2   +   3   +   4   +
||-------5-------5-------5-------5-|-------5-------5-------3-------3-|
||---6-------6-------5-------5-----|---6-------6-------6-------6-----|
||-7---7---7---7---5---5---5---5---|-5---5---5---5---3---3---3---3---|
||---------------------------------|---------------------------------|
||---------------------------------|---------------------------------|
||---------------------------------|---------------------------------|
  reach you, no

 |-------3-------3-------3-------3-|-------3-------3-------3-------3-||
 |---6-------6-------6-------6-----|---6-------6-------5-------5-----||
 |-5---5---5---5---5---5---5---5---|-5---5---5---5---5---5---5---5---||
 |---------------------------------|---------------------------------||
 |---------------------------------|---------------------------------||
 |---------------------------------|---------------------------------||

||-------5-------5-------5-------5-|-------5-------5-------3-------3-|
||---6-------6-------5-------5-----|---6-------6-------6-------6-----|
||-7---7---7---7---5---5---5---5---|-5---5---5---5---3---3---3---3---|
||---------------------------------|---------------------------------|
||---------------------------------|---------------------------------|
||---------------------------------|---------------------------------|

 |-------3-------3-------3-------3-|-------3-------3-------3-------3-||
 |---6-------6-------6-------6-----|---6-------6-------5-------5-----||
 |-5---5---5---5---5---5---5---5---|-5---5---5---5---5---5---5---5---||
 |---------------------------------|---------------------------------||
 |---------------------------------|---------------------------------||
 |---------------------------------|---------------------------------||



01/30/05

- If you feel like you miss something, it's probably right below; distortion!

  [G]                       [F#]                      [G]
||--x--x--x--x--x--x--x--x-|--x--x--x--x--x--x--x--x-|--x--x--x--x--x--x--x--x-|
||--x--x--x--x--x--x--x--x-|--x--x--x--x--x--x--x--x-|--x--x--x--x--x--x--x--x-|
||/12-12-12-12-12-12-12-12-|-12\11-11-11-11-11-11-11-|-11/12-12-12-12-12-12-12-|
||--x--x--x--x--x--x--x--x-|--x--x--x--x--x--x--x--x-|--x--x--x--x--x--x--x--x-|
||/10-10-10-10-10-10-10-10-|-10\-9--9--9--9--9--9--9-|--9/10-10-10-10-10-10-10-|
||--x--x--x--x--x--x--x--x-|--x--x--x--x--x--x--x--x-|--x--x--x--x--x--x--x--x-|

  [E]                [F#]                     [F#]
 |--x-x-x-x-x-x-x-x-|-x--x--x--x--x--x--x--x-|--x--x--x--x--x--x--x--x-|
 |--x-x-x-x-x-x-x-x-|-x--x--x--x--x--x--x--x-|--x--x--x--x--x--x--x--x-|
 |-12\9-9-9-9-9-9-9-|-9/11-11-11-11-11-11-11-|-11-11-11-11-11-11-11-11-|
 |--x-x-x-x-x-x-x-x-|-x--x--x--x--x--x--x--x-|--x--x--x--x--x--x--x--x-|
 |-10\7-7-7-7-7-7-7-|-7/-9--9--9--9--9--9--9-|--9--9--9--9--9--9--9--9-|
 |--x-x-x-x-x-x-x-x-|-x--x--x--x--x--x--x--x-|--x--x--x--x--x--x--x--x-|

  [F#]                      [D]
 |--x--x--x--x--x--x--x--x-|--x-x-x-x-x-x-x-x-||
 |--x--x--x--x--x--x--x--x-|--x-x-x-x-x-x-x-x-||
 |-11-11-11-11-11-11-11-11-|-11\7-7-7-7-7-7-7/||
 |--x--x--x--x--x--x--x--x-|--x-x-x-x-x-x-x-x-||
 |--9--9--9--9--9--9--9--9-|--9\5-5-5-5-5-5-5/||
 |--x--x--x--x--x--x--x--x-|--x-x-x-x-x-x-x-x-||



02/01/05





Comments


Popular Kashmir tabs & chords
Mouthful Of Wasps Bass Tabs
Still Boy Chords
The New Gold 2 Chords
Big Fresh Tabs
Little Old Birdy Funk Thing Tabs
Melpomene Tabs
Miss You 2 Tabs
Rocket Brothers Ukulele
Seraphina Ukulele
Surfing The Warm Industry Ukulele


Song lyrics



↑ Back to top | Tablatures and chords are parodies/interpretations of the original songs. You may use it for private study, scholarship, research or language learning purposes only
© 2014 AZChords.com Contact us | Privacy policy | DMCA | Add/correct tabs | Request tabs | Top 50 tabs