» » »

Chiksilog Bass tabs (ver.2)

Artists:  A B C D E F G H I J K L M N O P Q R S T U V W X Y Z # 

Chiksilog Bass tabs (ver.2)

Kamikazee
Rating:
0/5 (0 votes)

Hard to play? Try these video lessons and learn fast.
                Band: Kamikazee


Intro II:
G|-----------------------------------------------------------------------------|
D|-----------------------------------------------------------------------------|
A|-777----44-------77---------------77----44-------77--------------------------|
E|-----55----777------55-77777777------55----777------55-77xxx77xxx77x77x77x77-|
                                                        ..   ..   .. .. .. ..


Verse I:
G|-----------(4x)-|
D|----------------|
A|-777---444------|
E|-------------55-| 
               ..

Pre-Verse II:
G|--------------------------------|
D|--------------------------------|
A|-777----44-------77-------------|
E|-----55----777------55-77777777-|


Verse II:
G|-----------(4x)-|
D|----------------|
A|-777---444------|
E|-------------55-| 
               ..


Pre-Chorus:
G|--------------------------------(2x)-|
D|-------------------------------------|
A|------------------------------777777-|
E|-555555--777777--9-9-9-9-9-9---------| 
   .. ..   .. ..   . .   . .   


Chorus:
G|-----------------------------------|
D|-----------------------------------|
A|---------4444---------------4444---|
E|-555-55-------7777---555-55------7-|
       ..                          .

G|---------------------------------------------------------------|
D|---------------------------------------------------------------|
A|-777----44-------77---------------77----44------77-------------|
E|-----55----777------55-77777777------55----777-----55-77777b\2-|


Bridge I:
G|--------------------------------------------------------------------------------| 
D|--------------------------------------------------------------------------------|
A|-666/777777777-44444444444------------------------777777-4444444----------------|
E|---------------------------777777777-5555555555------------------777777-5555555-|


Bridge II:
G|-------------------H------------(2x)-|
D|-------------------O-----------------|
A|---------4444------L-------4444------|
E|-555-55-------7777-D-55555------7777-|
       ..      
                        

Bridge III:
G|----------------------------------------------------------------|
D|-----------------------------------------------------------------|
A|-----------444~-7777-------------444~-7777------------444~--7777-|
E|-555~-777~-------------555~-777~------------555~-777~------------|
   ..   ..   ..          ..   ..   ..         ..   ..   ..


Bridge IV:
G|----------------------------|
D|----------------------------|
A|----------------------------|
E|-55------77------55------77-|
   ..      ..      ..      ..

Verse III:
G|-----------(2x)-|
D|----------------|
A|-777---444------|
E|-------------55-| 
               ..

G|---------------------------------------------------------|
D|---------------------------------------------------------|
A|-777-777-777-777-444-444-----777-777-777-777-444-444-----|
E|-------------------------5-5-------------------------5-7-|


Pre-Chorus:
G|--------------------------------(2x)-|
D|-------------------------------------|
A|------------------------------777777-|
E|-555555--777777--9-9-9-9-9-9---------| 
   .. ..   .. ..   . .   . .   


Chorus:
G|-----------------------------------|
D|-----------------------------------|
A|---------4444---------------4444---|
E|-555-55-------7777---555-55------7-|
       ..                          .


Outro:
G|---------------------------------------------------------------|----|
D|---------------------------------------------------------------|----|
A|-777----44-------77---------------77----44------77-------------|-7~-|
E|-----55----777------55-77777777------55----777-----55-77777b\2-|----|
            
Hard to play? Try these video lessons and learn fast. | Correct




comments powered by Disqus
↑ Back to top | Tablatures and chords are parodies/interpretations of the original songs. You may use it for private study, scholarship, research or language learning purposes only