>
 >
Chiksilog Intro

Chiksilog Intro Guitar Tabs

Kamikazee - Chiksilog Intro chords, tabs, tablatures, lyrics

Guitar lessons | Add/correct | Request | Top 50 tabs Artists:  A B C D E F G H I J K L M N O P Q R S T U V W X Y Z 0-9

Chiksilog Intro Guitar Tabs – Kamikazee

CD, Sheet music, Poster

Do you like Chiksilog Intro? Share with your friends now
Tabs
this is still incomplete,but Im gonna post the complete tab soon

Intro 1:
(Ryhtm) - Distortion
e|-------------------------------------------|
B|-------------------------------------------|
G|--9-9-9-9-9-9-9-9-9-9----------------------|
D|--x-x-x-x-x-x-x-x-x-x----------------------|
A|--7-7-7-7-7-7-7-7-7-7----------------------|
E|-------------------------------------------|
(Lead Guitar)
Intro
e|-------------------------------------------|
B|--9-9-9-9-9-9-9-9-9-9----------------------|
G|--9-9-9-9-9-9-9-9-9-9----------------------|
D|--x-x-x-x-x-x-x-x-x-x----------------------|
A|--7-7-7-7-7-7-7-7-7-7----------------------|
E|-------------------------------------------|

Intro 2: E-A-C#m-Bm then E-A-Bm
(Rythm)
    E E  A A  C#m  Bm   E E  A A  Bm
e|----------------------------------------|
B|----------------------------------------|
G|--9-9-------6-6--4-4--9-9---------------|
D|--9-9--7-7--6-6--4-4--9-9--7-7--9-9-----|
A|--7-7--7-7--4-4--2-2--7-7--7-7--9-9-----|
E|-------5-5-----------------5-5--7-7-----|
(Lead guitar)
e|-------------------------------------------------------------------|
B|--------9---------------9----------------9-------------------------|
G|--/9 11---11--9-8-9--11---11-9-8--8/9-11---11-9-8-9-9-9-9-9-9------|
D|--------------------------------------------------x-x-x-x-x-x------|
A|--------------------------------------------------7-7-7-7-7-7------|
E|-------------------------------------------------------------------|
(Ryhtm)
    E E  A A  C#m  Bm   E E  A A  Bm    Bm    Bm    Bm    Bm    Bm
e|--------------------------------------------------------------------|
B|--------------------------------------------------------------------|
G|--9-9-------6-6--4-4--9-9-------------------------------------------|
D|--9-9--7-7--6-6--4-4--9-9--7-7--9-9-x-9-9-x-9-9-x-9-9-x-9-9-x-9-9---|
A|--7-7--7-7--4-4--2-2--7-7--7-7--9-9-x-9-9-x-9-9-x-9-9-x-9-9-x-9-9---|
E|-------5-5-----------------5-5--7-7-x-7-7-x-7-7-x-7-7-x-7-7-x-7-7---|
(Lead guitar)
e|-----------------------------------------------------------------------------|
B|--------9---------------9----------------9-----------------------------------|
G|--/9 11---11--9-8-9--11---11-9-8--8/9-11---11-9-8-9-x-9-x-9-x-9-x-9-x-9------|
D|--------------------------------------------------x-x-x-x-x-x-x-x-x-x-x------|
A|--------------------------------------------------7-x-7-x-7-x-7-x-7-x-7------|
E|----------------------------------------------------x---x---x---x---x--------|

Verse 1:
(rythm)
repeat 2x for rythm and once on for lead guitar
    E E E   C#m     A A  E E E   C#m     A A
e|------------------------------------------------|
B|--------p-------p------------p-------p----------|
G|--9-9-9-a-6-6-6-a------9-9-9-a-6-6-6-a----------|
D|--9-9-9-u-6-6-6-u-7-7--9-9-9-u-6-6-6-u-7-7------|
A|--7-7-7-s-4-4-4-s-7-7--7-7-7-s-4-4-4-s-7-7------|
E|--------e-------e-5-5--------e-------e-5-5------|
(Lead guitar)
repeat 4x distortion palm muted on first 3
e|-------------------------------------------|
B|-------------------------------------------|
G|--9-9-8-8-6-6------------------------------|
D|--------------9-9-7-7-6-6-7-7-9-9----------|
A|-------------------------------------------|
E|-------------------------------------------|

After Verse 1:
(Rythm)repeat twice
    E E  A A  C#m  Bm   E E  A A  Bm
e|----------------------------------------|
B|----------------------------------------|
G|--9-9-------6-6--4-4--9-9---------------|
D|--9-9--7-7--6-6--4-4--9-9--7-7--9-9-----|
A|--7-7--7-7--4-4--2-2--7-7--7-7--9-9-----|
E|-------5-5-----------------5-5--7-7-----|
(Lead guitar)repeat twice
e|-------------------------------------------------------------------|
B|--------9---------------9----------------9-------------------------|
G|--/9 11---11--9-8-9--11---11-9-8--8/9-11---11-9-8-9-9-9-9-9-9------|
D|--------------------------------------------------x-x-x-x-x-x------|
A|--------------------------------------------------7-7-7-7-7-7------|
E|-------------------------------------------------------------------|

Verse 2:

(Ryhtm)
    E E E   C#m     A A  E E E   C#m     A A
e|------------------------------------------------|
B|--------p-------p------------p-------p----------|
G|--9-9-9-a-6-6-6-a------9-9-9-a-6-6-6-a----------|
D|--9-9-9-u-6-6-6-u-7-7--9-9-9-u-6-6-6-u-7-7------|
A|--7-7-7-s-4-4-4-s-7-7--7-7-7-s-4-4-4-s-7-7------|
E|--------e-------e-5-5--------e-------e-5-5------|


    E E E   C#m     A A  E E E   C#m     A  Bm 
e|----------------------------------------------|
B|--------p-------p------------p-------p--------|
G|--9-9-9-a-6-6-6-a------9-9-9-a-6-6-6-a--------|
D|--9-9-9-u-6-6-6-u-7-7--9-9-9-u-6-6-6-u-7--9---|
A|--7-7-7-s-4-4-4-s-7-7--7-7-7-s-4-4-4-s-7--9---|
E|--------e-------e-5-5--------e-------e-5--7---|

(Lead)
    E E E   C#m     A A  E E E   C#m     A A
e|------------------------------------------------|
B|--------p-------p------------p-------p----------|
G|--9-9-9-a-6-6-6-a------9-9-9-a-6-6-6-a----------|
D|--9-9-9-u-6-6-6-u-7-7--9-9-9-u-6-6-6-u-7-7------|
A|--7-7-7-s-4-4-4-s-7-7--7-7-7-s-4-4-4-s-7-7------|
E|--------e-------e-5-5--------e-------e-5-5------|
repeat 3x
e|-------------------------------------------|
B|-------------------------------------------|
G|--9-9-8-8-6-6------------------------------|
D|--------------9-9-7-7-6-6-7-7-9-9----------|
A|-------------------------------------------|
E|-------------------------------------------|
then
                    A Bm
e|------------------------------|
B|------------------------------|
G|--9-9-8-8-6-6-----------------|
D|--------------9-9-7-9---------|
A|------------------7-9---------|
E|------------------5-7---------|





Comments


Popular Kamikazee tabs & chords
Pepeng Maghapon Bass Tabs
Ambisyoso 2 Chords
Darna Chords
Kitkat Gwapo Chords
Ambisyoso 1 Tabs
Narda 1 Tabs
Tagpuan 2 Tabs
Halik 2 Ukulele
Hurting So Bad Ukulele
Last Kiss Ukulele


Song lyrics



↑ Back to top | Tablatures and chords are parodies/interpretations of the original songs. You may use it for private study, scholarship, research or language learning purposes only
© 2014 AZChords.com Contact us | Privacy policy | DMCA | Add/correct tabs | Request tabs | Top 50 tabs