» » »

Kamikazee, Alay Tabs (ver.1)

Artists:  A B C D E F G H I J K L M N O P Q R S T U V W X Y Z # 

Alay Tabs (ver.1)

Kamikazee Tabs
Rating:
5/5 (7 votes)
Alay lessons Tabs too difficult? Try these video lessons and learn fast
                donated by 09283150081

ALAY by Kamikazee

Standard Tuning

Intro-
|---------------------------------------------------------------------------|
|-22-333-2-x-22-222-3-x-22-222-333333-22222-333333-22222222222--33333333333-|
|-22-222-2-x-22-222-2-x-22-222-222222-22222-222222-22222222222--22222222222-|
|-00-000-0-x-00-000-0-x-00-000-000000-00000-000000--------------------------|
|--------------------------------------------------22222222222--------------|
|---------------------------------------------------------------33333333333-|

|-----------------------------------------------------|
|-22-222-333333-22222-333333-22222222222--33333333333-|
|-22-222-222222-22222-222222-22222222222--22222222222-|
|-00-000-000000-00000-000000--------------------------|
|----------------------------22222222222--------------|
|-----------------------------------------33333333333-|

Verse-
|-----------------------------------------------------|
|-33-333-333333-33333-333333-22222222222--33333333333-|
|-22-222-222222-22222-222222-22222222222--22222222222-|
|-00-000-000000-00000-000000--------------------------|2x
|----------------------------22222222222--------------|
|-----------------------------------------33333333333-|

Refrain
|-----------------------------|
|-33333-333333-33333-333333---|
|-22222-222222-22222-222222---|
|--------------------000000---|
|-------000000-22222----------|
|-33333-----------------------|

|-----------------------------|
|-33333-333333-33333-333333---|
|-22222-222222-22222-222222---|
|-----------------------------|
|-------000000-22222-222222---|
|-33333-----------------------|


|-----------------------------|
|-33333-333333-33333-333333---|
|-22222-222222-22222-222222---|
|--------------------000000---|
|-------000000-22222----------|
|-33333-----------------------|

|-----------------|
|-33333-3--33333--|
|-22222-2--22222--|
|-------2~--------|
|-------0~-00000--|
|-33333-----------|

Chorus-
|-------------------------------------------|
|-33333333-333333333-33333333-33333333------|
|-22222222-222222222-22222222-22222222------|
|-----------------------------00000000------|2x
|----------000000000-22222222---------------|
|-33333333----------------------------------|

Do intro
Do verse-to chorus

then Gtr I do this 2x

|-------------------------------------------------------------------------|
|-------------------------------------------------------------------------|
|-11111111111111111-999999999999999-77777777777777-1414141414141414141414-|
|-------------------------------------------------------------------------|
|-9999999999999999--777777777777777-55555555555555-1212121212121212121212-|
|-------------------------------------------------------------------------|

|--------------------------------------------------------------------------|
|--------------------------------------------------------------------------|
|-11111111111111111-999999999999999-77777777-9999-11111-141414141414141414-|
|--------------------------------------------------------------------------|
|-9999999999999999--777777777777777-55555555-7777-9999--121212121212121212-|
|--------------------------------------------------------------------------|

GtrII do chorus2x till 

outro
|----------------------|
|-22-333-2--22-222-3~--|
|-22-222-2--22-222-2~--|
|-00-000-0--00-000-0~--|
|----------------------|
|----------------------|
            

comments powered by Disqus
↑ Back to top | Kamikazee Tabs for Alay. Lyrics for acoustic guitar and electric guitar. Tablatures and chords are parodies/interpretations of the original songs. You may use it for private study, scholarship, research or language learning purposes only