» » »

Kamikazee, Narda Tabs (ver.1)

Artists:  A B C D E F G H I J K L M N O P Q R S T U V W X Y Z # 

Narda Tabs (ver.1)

Kamikazee Tabs
Rating:
0/5 (0 votes)
Narda lessons Tabs too difficult? Try these video lessons and learn fast
                I DEDICATE THIS TAB TO ALL ANGEL LOCSIN FANS HEHE..
SIMPLE SONG PERO ASTIG, FAVORITE KO..

THIS IS THE ACOUSTIC VERSION OF NARDA YUNG KINANTA NILA SA MYX LIVE..

Narda by kamikazee

INTRO:

GUITAR 1
E-----------------------------------------------------------|
B-----------------------------------------------------------|
G----7--7--7--7---4--4--4--4---4---4---4---4---6---6---6--6-|
D---7--7--7--7---4--4--4--4---------------------------------|  TAP!
A--5--5--5--5---2--2--2--2---5---5---5---5----7--7---7---7--|
E---------------------------3---3---3---3---5---5---5---5---|

E---------------------------------------------|
B--6666666-3333333----------------------------|
G--7777777-4444444-4444444-6666666-101010-888-|
D--7777777-4444444-5555555-7777777-111111-999-| sabay nyo sa tyming
A--5555555-2222222-5555555-7777777-111111-999-|
E------------------3333333-5555555- 9 9 9-777-|

pasok
GUITAR 2
note:semi-fast picking
E---------------------|
B--5555-3-5555-3-55-3-| (4X)
G---------------------|

GUITAR 1
E----------------------------------|
B--6666666-3333333-----------------|
G--7777777-4444444-4444444-6666666-|
D--7777777-4444444-5555555-7777777-|
A--5555555-2222222-5555555-7777777-|
E------------------3333333-5555555-|


VERSE:
GUITAR 1(paulit-ulit tigil lang sa chorus)
E-----------------------------------------------------------|
B-----------------------------------------------------------|
G----7--7--7--7---4--4--4--4---4---4---4---4---6---6---6--6-|
D---7--7--7--7---4--4--4--4---------------------------------|
A--5--5--5--5---2--2--2--2---5---5---5---5----7--7---7---7--|
E---------------------------3---3---3---3---5---5---5---5---|

sa part na "mapapansin kaya sa dame ng yong ginagawa" parang sa intro
GUITAR 2(palm mute)
E----------------------------------|
B--6666666-3333333-----------------|
G--7777777-4444444-4444444-6666666-|
D--7777777-4444444-5555555-7777777-|
A--5555555-2222222-5555555-7777777-|
E------------------3333333-5555555-|


CHORUS:

"Awit na nananawagan",
E---------------|
B--666666666666-|
G--777777777777-|
D--777777777777-|
A--555555555555-|
E---------------|

"baka sakaling napakikinggan"
E---------------|
B--333333333333-|
G--444444444444-|
D--444444444444-|
A--222222222222-|
E---------------|

"Pag ibig na palaisipan"
E---------------|
B---------------|
G--444444444444-|
D--555555555555-|
A--555555555555-|
E--333333333333-|

"sa kanta na  lang idadaan"
E---------------|
B---------------|
G--666666666666-|
D--777777777777-|
A--777777777777-|
E--555555555555-|

*sabay sa pagpasok sa chorus
GUITAR 2
note:semi-fast picking
E---------------------|
B--5555-3-5555-3-55-3-| (8X) tymingan nyo na lang
G---------------------|

*SAME PATTERN PARA SA SUSUNOD NA VERSE

"Nag aabang sa langit, sa mga ulap sumisilip
Sa likod ng mga tala,kahit sulyap lang darna"

VERSE ULIT THEN CHORUS THEN REPEAT LAST TWO VERSE OF THE CHORUS YUNG
"Nag aabang sa langit, sa mga ulap sumisilip
Sa likod ng mga tala,kahit sulyap lang darna"TAPOS ENDING.

FIRST TAB KO TO KAYA MAY KONTING ERROR SIGURO..

PAKI RATE THIS TAB KAMIKAZEE FANATIC HERE.. HEHE
            
Submit corrections

comments powered by Disqus
↑ Back to top | Kamikazee Tabs for Narda. Lyrics for acoustic guitar and electric guitar. Tablatures and chords are parodies/interpretations of the original songs. You may use it for private study, scholarship, research or language learning purposes only