» » »

Seksi Seksi Tabs (ver.1)

Artists:  A B C D E F G H I J K L M N O P Q R S T U V W X Y Z # 

Seksi Seksi Tabs (ver.1)

Kamikazee
Rating:
0/5 (0 votes)

Hard to play? Try these video lessons and learn fast.
                15 years old,Montalban Rizal
       09229015724(Sun Cell)

Notes:Kayo na nga pa lang bahala sa strumming at timing.Paking-
     gan nyo na lang ng maige para makuha nyo!!Kung may mga mali
     o kulang,ayusin nyo na lang.Kung may commento o reklamo,Mag-
     Post a Comment,Mail,PM,Frndster Mess o kya Text nyo na lang
     ako.Pwede nyo ring lait-laitin!!!hehe...Para nga pala ito sa 
     mga HORNY kong mga FRIENDS sa School!!ahaha..PEACE V and ROCK 
     ON \;;/,!!!Please Rate...


Gtr.Legends
. - PALM MUTING
~ - LET IT RING
b - BEND
/ - SLIDE-DOWN

Intro prt 1:
e-----------          -------------|
B----------- Timingan -------------|
G----------- nyo na   -------------|
D----------- lang!!   --5555-6666--|
A-5-5--6-7--          --3333-4444--|
E-3-3--4-5--          -------------|

Intro prt 2:
e---------------------------      -------------------|
B---------------------------      -------------------|
G--------------------------- 3x   -------------------|
D-------------7-5-7-6--4---- Then -55-66--5555-5555--|
A--5-5-6-7-8--5-3-5-4--2-5~-      -55-66--3333-5555--|
E--3-3-4-5-6-------------3~-      -33-44-------3333--|
                                   .. ..
Verse 1:
e------------------------|           
B------------------------|           
G------------------------|           
D-----------7-6----------|           
A--5-5-6-7--5-4--7-6-----|
E--3-3-4-5-------5-4-----|
            . .  . .       Repeat
e------------------------| This
B------------------------| 2x
G-----------9-9-9-9------|
D------------------------|
A-5-5-6-7----------------|
E-3-3-4-5----------------|
            b b b b

e---------------------------------|
B---------------------------------|
G---------------------------------|
D---------------------5555-6666---|
A-5-5-6-7---5-5-6-7---3333-4444---|
E-3-3-4-5---3-3-4-5---------------|

Chorus:Play the Intro prt 2  
Verse 2:Play the verse 1
Repeat Chorus:

Bridge prt 1:
e-------------------|      Notes:Pkinggan nyo ng maige  
B-------------------|           d2 s part n i2!!hehe.. 
G-------------------| 3x   
D-------------------|     
A--8-6-5-6-6-5-6-8--|     
E--6-4-3-4-4-3-4-6--|     
   

e---------------------------------|
B---------------------------------|
G---------------------------------|
D---------------------------------|
A--8888-6666-5555-6666--7777--8~--|
E--6666-4444-3333-4444--5555--6~--|


Bridge prt 2:
              
Gtr 1:Play this also during adlib         Gtr.2 Enters:
e------------------------------------     --------------|
B------------------------------------     --------------|  
G------------------------------------     --------------|
D------------------------------------     --------------|  
A-2/7-0-7b-0-7b-0-7b-0-7b-7b-7b-7b---     --2~--22-0-22-|
E------------------------------------     --0~--00-0-00-|
                                                ..   ..                 

Bridge prt 3(Adlib):
Gtr.2
Notes:Kas-kasin nyo na lng dito sa parteng ito!!Hindi exacto ung no.ng lead...
e------------------14-15-14-15-14-15-17---16-16-16-17--16-16-16-17-16-16-17-17--19--|
B-17b-17b-17b-17b-------------------------------------------------------------------|
G-----------------------------------------------------------------------------------|
D-----------------------------------------------------------------------------------|
A-----------------------------------------------------------------------------------|
E-----------------------------------------------------------------------------------|

e--------------------------------------    -16-16-17-16-17-16-17-16-17-18-------|
B-17-17-16-16-15-15-14-14-13-13-12-12--    -------------------------------17b~--|
G-------------------------------------- 2x -------------------------------------|
D--------------------------------------    -------------------------------------|
A--------------------------------------    -------------------------------------|
E--------------------------------------    -------------------------------------|

Gtr 1.Last prt na ng adlib
e-------------------------       -------|
B------------------------- 3x    -------|
G------------------------- Then  -------|
D-------------------------       ----8~-|
A-------------------------       ----8~-|
E-1212-1111-1010-99-88-77-       ----6~-|

Repeat Chorus:

Outro:
Repeat the Bridge prt 1:
The Last Chord of the Song:
e--------------|
B--------------|
G--------------|
D--7~----------|
A--7~----------|
E--6~----------|

End...

Lyrics by forget_013

Verse 1:
36,24,36 yan ang sukat ng makinis mong yes katawan
Posturang Coca Cola yeah(YEAH)
Pag-nakabikini mamamiya labahita ulala
Lahat kami ay nabighani mo
Excuse me miss anong pangalan mo

Chorus:
Pasensiya ka na miss kung di ko maiwasan
Ang tipo mo kasi ay titigan
Pasensiya ka na miss pero di ko mapigilan
Ang seksi seksi mo oh yes nabubulunan

Verse 2:
1,4,3,4,4 i love you very much(i love you very much)
Nag-pupumiglas,gustong ilabas
3,5,2,5,4 you stole my heart away
Valentines Day ang feeling everyday
Ang iyong mga pisngi na kay sarap himasin
Parang skin ng baby na may konting pulbos

Repeat Chorus:

Bridge:
Seksi seksi,Seksi mo(Yeah Alright)
Seksi seksi seksi seksi 
Ang seksi mo

Hey miss gusto mo bang sumama sa akin
May alam ako malapit lang jan sa may Cubao
When the moment I see you I teach you a song
Ang iyong mga pisngi na kay sarap himasin
Parang skin ng baby na may konting pulbos

Repeat Chorus:

Enjoi...
  
   I would like to greet my f*ckin HORNY friends;Ram,Andrei,Louis,
Migs,Geoffrey,Roi,& Nath Ahaha...My Band Mates;Edy,Dino,Jiro,Mik2,
Andrei and Aeroll(Padre Garotte),The DOTA ALL-STARS of NSDAPS San 
Mateo Rizal,The Tower RED Records for nothing,Sa mga ka-CSTRIKE at
ka GB ko,Ung mga frndsz ko sa Montalban and my Luv;Cesz!!nyahaha...
V and \;;/,
            
Hard to play? Try these video lessons and learn fast. | Correct




comments powered by Disqus
↑ Back to top | Tablatures and chords are parodies/interpretations of the original songs. You may use it for private study, scholarship, research or language learning purposes only