» » »

Kamikazee, Ambisyoso Bass tabs (ver.3)

Artists:  A B C D E F G H I J K L M N O P Q R S T U V W X Y Z # 

Ambisyoso Bass tabs (ver.3)

Kamikazee Tabs
Rating:
4/5 (1 vote)
Ambisyoso lessons Tabs too difficult? Try these video lessons and learn fast
                -------------------------------------------------------------------------------
			     AMBISYOSO - Kamikazee
-------------------------------------------------------------------------------


Tuning: Standard

PUTO (Bass Intro):
G|-1111111111--141414--1212121212--141414--1111111111--141414--1212121212~-|
D|-1212121212--121212--1212121212--121212--1212121212--121212--1212121212~-|
A|-------------------------------------------------------------------------|
E|-------------------------------------------------------------------------|

INTRO PRT 2:
G|--------------------------------------------------------------------------|
D|--------------------------------------------------------------------------|
A|-5-9-7-9-7-5--4-5-5/7-5-4-0------------5-9-7-9-7-5--5-4-5-7-5-0-----------|
E|----------------------------2222-3333---------------------------2222-3333-|

VERSE 1:
G|--------------------------------------------------------------------------|
D|--------------------------------------------------------------------------|
A|-5-9-7-9-7-5--4-5-5/7-5-4-0------------5-9-7-9-7-5--5-4-5-7-5-0-----------|
E|----------------------------2222-3333---------------------------2222-3333-|

PRE-CHORUS:
G|-------------------------------------------|
D|-------------------------------------------|
A|-555555-------------------55555------------|
E|---------222222--333333----------22222--3~-|
   ......  ......  ......   .....  .....

CHORUS:
G|---------------------------------------|---------|
D|---------------------------------------|---------|
A|-55555-----------------55555-----------|---------|
E|--------22222--33333----------22222--3-|-2-3-2-5-|
                                       .

VERSE 2:
G|--------------------------------------------------------------------------|
D|--------------------------------------------------------------------------|
A|-5-9-7-9-7-5--4-5-5/7-5-4-0------------5-9-7-9-7-5--5-4-5-7-5-0-----------|
E|----------------------------2222-3333---------------------------2222-3333-|

PRE-CHORUS:
G|-------------------------------------------|
D|-------------------------------------------|
A|-555555-------------------55555------------|
E|---------222222--333333----------22222--3~-|
   ......  ......  ......   .....  .....

CHORUS:
G|--------------------------------------(2x)-|
D|-------------------------------------------|
A|-55555-----------------55555---------------|
E|--------22222--33333----------22222--33333-|
                                       
BRIDGE PRT 1:
G|--------------------------------------------------------|
D|--------------------------------------------------------|
A|------2222----------------2222--------22-55-------22-55-|
E|-5555-------3333333--5555-------33-55-------33-55-------|

BRIDGE PRT 2:
G|-xxxxxxxxxx--------(4x)-|
D|------------------------|
A|------------------------|
E|-------------22222-3333-|

BRIDGE PRT 3:
G|------------H------------H-------------------|
D|------------O------------O-------------------|
A|------------L------------L-------------------|
E|-22-3-2-3-2-D-22-3-2-3-2-D-22-3-2-3-2-555555-|
      . . . .      . . . .      . . .     

OUTRO:
G|---------------------------------------|
D|---------------------------------------|
A|-55555-----------------55555-----------|
E|--------22222--33333----------22222--3-|
                                       .
            

comments powered by Disqus
↑ Back to top | Kamikazee Bass for Ambisyoso. Lyrics for acoustic guitar and electric guitar. Tablatures and chords are parodies/interpretations of the original songs. You may use it for private study, scholarship, research or language learning purposes only