>
 >
Ambisyoso

Ambisyoso Guitar Tabs

Kamikazee - Ambisyoso chords, tabs, tablatures, lyrics

Guitar lessons | Add/correct | Request | Top 50 tabs Artists:  A B C D E F G H I J K L M N O P Q R S T U V W X Y Z 0-9

Ambisyoso Guitar Tabs – Kamikazee

CD, Sheet music, Poster

Do you like Ambisyoso? Share with your friends now
Bass TabsBass Tabs v2Bass Tabs v3ChordsChords v2Chords v3TabsTabs v2Tabs v3Ukulele
Album:Maharot
              09229015724(Sun Cell)

For your questions or suggestions,just post in friendster comment,PM or mail me.
  
Gtr.Legends:
x - dead string
. - palm muting
~ - let it ring
* - artificial harmonic
/ - slide

Gtr.Tuning:Standard(Normal)

Intro prt.1:
Bass
G|-1111111111--141414--1212121212--141414--1111111111--141414--1212121212~---|
D|-1212121212--121212--1212121212--121212--1212121212--121212--1212121212~---|
A|---------------------------------------------------------------------------|
E|---------------------------------------------------------------------------|

Gtr.1:
e|------------------------------------------------|
B|------------------------------------------------| The Intro prt.1 is played only by bass guitar.  
G|------------------------------------------------| You can also play this one if you didn't have 
D|-44444--777--777777--777--44444--777--555555~---| a bass guitar.
A|-55555--555--555555--555--55555--555--555555~---|
E|------------------------------------------------|

Gtr.2 Enters
e|------------------------------------|
B|-7*~----------------7*~-------------| Don't know how to play harmonics??
G|-----7*~-----------------7*~--------| So play the alternative below...
D|----------7*~-----------------7*~---|
A|------------------------------------|
E|------------------------------------|

e|-14~--10~--------14~--10~---------|
B|-----------10~--------------10~---|
G|----------------------------------|
D|----------------------------------|
A|----------------------------------|
E|----------------------------------|

Intro prt.2:
Bass
G|----------------------------------------------------------------------------| 
D|---4-2-4-2-0-----------------------------4-2-4-2-0--------------------------|
A|-5------------4-5-5/7-5-4-0------------5------------5-4-5-7-5-0-------------|
E|----------------------------2222-3333---------------------------2222-3333---|

Gtr.1:
e|---------------------------------|
B|---------------------------------|
G|-77-66-44-22-44-22-44-22-00000---| 2x
D|---------------------------------|
A|---------------------------------|
E|---------------------------------|

Gtr.2:
e|------------------------------------------------|
B|------------------------------------------------|     Listen to the song well to
G|------------------------------------------------| 2x  get the timing...
D|---4-4/5-4----4-----4----4/5-4----4-5-4-00000---|
A|-5----------5-----5----5-------5----------------|
E|------------------------------------------------|

Verse 1:Ang sarap sanang mag-karoon...
e|---0~-------------------|
B|-3--------2-3-2---2~----| 2x
G|--------2-------2-------|
D|------------------------|
A|------------------------|
E|------------------------|

Pre-Chorus 1:Magic Wallet na hindi...
e|---------------------------------------------|
B|---------------------------------------------|
G|-777777-------------------77777--------------|
D|-777777--444444--555555---77777--44444--5~---|
A|-555555--444444--555555---55555--44444--5~---|
E|---------222222--333333----------22222--3~---|
   ......  ......  ......   .....  .....

Chorus:Libre lng mangarap
Gtr.1
e|-2~---|
B|-3~---| Do some pluck here...
G|-2~---|
D|------|
A|------|
E|------|

Gtr.2:
e|-----------------------------------------|
B|-----------------------------------------|
G|-77777-----------------77777-------------|
D|-77777--44444--55555---77777--44444--5---|
A|-55555--44444--55555---55555--44444--5---|
E|--------22222--33333----------22222--3---|
                                       .

Managinip ka habang gising...
Bass
G|----------------|
D|----------------|
A|----------------|
E|-3--2-3-2-5-3---|
   .

Verse 2:Ang sanang sanang maging...
Play Intro prt.1(Gtr.2 Only) 4x

Pre-Chorus 2:Ka-lab team ko ang lahat...
Gtr.1:Play Pre-Chorus 1
Gtr.2:
e|--------------------------------------------------------|
B|--------------------------------------------------------|
G|-77-66-44-22-44-22-44-22-00000---77-66-44-22-44-22-0~---| 
D|--------------------------------------------------------|
A|--------------------------------------------------------|
E|--------------------------------------------------------|

Repeat Chorus:

Bridge prt.1:Hindi tulad sa tindahan...
Both gtr.1 and 2:
e|-22222--33333--555555---|
B|-22222--33333--333333---|
G|------------------------| 4x
D|------------------------|
A|------------------------|
E|------------------------|

Bass
G|---------------------------------------------------------|
D|---------------------------------------------------------| 2x
A|---------------------------------------------------------|
E|-5555-7777--3333333--5555-7777--33-55-7777--33-55-7777---|

Bridge prt.2(Adlib):
Gtr.1
e|-2222222222---------------|
B|-3333333333---------------|
G|-2222222222---------------| 4x w/Low Volume
D|-------------44444-5555---|
A|-------------44444-5555---|
E|-------------22222-3333---|

Gtr.2:
e|---------------------------------------------------------------------------------------------
B|-77777-8888--------------77-8-7-8-77-8-7-8-7-8-7--------------10101010101010-----------------
G|-77777-7777--------------77-7-7-7-77-7-7-7-7-7-7---------------7-7-7-7-7-7-7-----------------
D|-------------44444-5555---------------------------44444-5555------------------44444--55555---
A|-------------44444-5555---------------------------44444-5555------------------44444--55555---
E|-------------22222-3333---------------------------22222-3333------------------22222--33333---

-----------------------------------------------------------|
-101010-888-101010-888-10-8--------------------------------|
--7-7-7-777--7-7-7-777--7-7--------------------------------|
-----------------------------44444--55555---44444--55555---|
-----------------------------44444--55555---44444--55555---|
-----------------------------22222--33333---22222--33333---|

Bridge prt.3(Last prt.of the Bridge)
e|------------P------------P--------------------------------|
B|------------A------------A--------------------------------|
G|------------U------------U--------------------------------|
D|-44-5-4-5-4-S-44-5-4-5-4-S-44-5-4-5-4-777777-Pick-Slide---|
A|-44-5-4-5-4-E-44-5-4-5-4-E-44-5-4-5-4-777777--------------|
E|-22-3-2-3-2-D-22-3-2-3-2-D-22-3-2-3-2-555555--------------|
      . . . .      . . . .      . . .     

Outro Chorus:Libre lang mangarap....
Gtr.1:Play Chorus

Gtr.2:
e|-----------            ----------|
B|----------- Repeat     ----------|
G|-77776666-- Many Times -999999---|
D|-xxxxxxxx-- Then       -xxxxxx---|
A|-55555555--            -555555---|
E|-----------            ----------|

Las Chord:
e|-----|
B|-----|
G|-----|
D|-5---|
A|-5---|
E|-3---|
   .

End...

Ambisyoso Lyrics:

Verse 1:
Ang sarap sanang mag-karoon ng sapatos na lumilipad
Spaceship,kotse ni batman,X-ray shades at laser gun

Pre-Chorus 1:
Magic wallet na hindi nauubusan ng laman
Time machine,babalik ang oras
Ngaun din

Chorus:
Libre lang mangarap
Walang hanggan na pag-hiling
Libre lang mangarap
Managinip ka habang gising

Verse 2:
Ang sarap sanang maging bida sa sarili kong pinikula
Ninja,kumakain ng bala,magaling sumayaw parang John Travolta

Pre-Chorus 2:
Ka-lab team ko ang lahat ng magaganda at seksing artista
Kissing scene,kay Aubrey Miles o Angel Locsin

Repeat Chorus:

Bridge:
Hindi tulad sa tindahan,walang utang,walang lisatahan
Managinip at mangarap,wala kang babayaran

Repeat Chorus:





Comments


Popular Kamikazee tabs & chords
Tamis Bass Tabs
Martyr Nyebera 1 Chords
Director's Cut 2 Tabs
Halik 7 Tabs
Huling Sayaw Tabs
Narda 1 Tabs
Tsinelas Tabs
Ung Tagalog Tabs
Wo-oh 1 Tabs
Halik 2 Ukulele


Song lyrics



↑ Back to top | Tablatures and chords are parodies/interpretations of the original songs. You may use it for private study, scholarship, research or language learning purposes only
© 2014 AZChords.com Contact us | Privacy policy | DMCA | Add/correct tabs | Request tabs | Top 50 tabs