>
 >
Hello

Hello Bass Tabs

John Butler Trio - Hello chords, tabs, tablatures, lyrics

Guitar lessons | Add/correct | Request | Top 50 tabs Artists:  A B C D E F G H I J K L M N O P Q R S T U V W X Y Z 0-9

Hello Bass Tabs – John Butler Trio

CD, Sheet music, Poster

Do you like Hello? Share with your friends now
Bass TabsBass Tabs v2Tabs
Tuning:  Standard

r = let ring
/ = slide up
\ = slide down
_ = where I've added spaces to keep the bars in time


This song is ideally played on a stand-up bass though a fretless will also work.
If you've got a fretted bass you can obviously still play it but there are
a couple of bits that will be impossible, unless you're very good and can
bend a string before you play it.

Enjoy.


Intro

G|--------0-------|----------------|--------0-------|----------------|
D|2-----2-----2---|--------0-------|2-----2-----2---|--------0-------|
A|----------------|------------2---|----------------|------------2---|
E|----------------|3-----3---------|----------------|3-----3---------|

G|--------0-------|----------------|--------0-------|----------------|
D|------2-----2---|--------0-------|------2-----2---|--------0-------|
A|----------------|------------2---|----------------|------------2---|
E|0---------------|3-----3---------|0---------------|3---------------|


Verse

G|-------11\10.5-----|0------7--------|  The slide down from 11\10.5 only works with a fretless
D|----9------___-----|----9-----9-7---|  or a double bass.  If you have a fretted bass just
A|7----------___-----|----------------|  play 11.
E|-----------___-----|----------------|

G|-------11\10.5-----|0------7--------|-------11\10.5-----|0------7-7------|
D|----9------___-----|----9-----9-7-9-|----9------___-----|----9-----9-7-9-|
A|7----------___-----|----------------|7----------___-----|----------------|
E|-----------___-----|----------------|-----------___-----|----------------|

G|-------11\10.5-----|0------7------0-|
D|----9------___-----|----9-----9-7---|
A|7----------___-----|----------------|
E|-----------___-----|----------------|

G|--------0-------|----------------|--------0-------|----------------|
D|2-----2-----2---|--------0-------|2-----2-----2---|--------0-------|
A|----------------|------------2---|----------------|------------2---|
E|----------------|----3-----------|----------------|----3-----------|

G|------3/4-0-------|----------------|--------0-------|----------------|
D|2------__-----2---|--------0-------|2-----2-----2---|--------0-------|
A|-------__---------|------------2---|----------------|------------2---|
E|-------__---------|----3-----------|----------------|----3-----------|

G|--------0-------|----------------|--------0-------|----------------|
D|------2-----2---|--------0-------|------2-----2---|--------0-------|
A|----------------|------------2---|----------------|------------2---|
E|0---------------|3-----3---------|0---------------|3-----3---------|

G|--------0-------|----------------|--------0-------|----------------|
D|------2-----2---|--------0-------|------2-----2---|--------0-0-----|
A|----------------|------------2---|----------------|------------2-2-|
E|0---------------|3-----3---------|0---------------|3-----3---------|


Pre-Chorus

G|--------0-------|------4------__---|--------0-------|------4------__---|
D|------2-------2-|-------5--5\4.5---|------2-------2-|-------5--5\4.5-4-|
A|0---------------|0------------__---|0---------------|0------------__---|
E|----------------|-------------__---|----------------|-------------__---|

G|--------0-------|-------4-----__---|--------0------7/97--------------|
D|------2-------2-|--------5-5\4.5-4-|------2---------|--9-7-7\--0-----|
A|0---------------|0------------__---|0---------------|------------2---|
E|----------------|-------------__---|----------------|--------------3-|
                                                I'm 95% sure about this bit.

Chorus

G|-------0-0------|----------------|-------0-0------|----------------|
D|----2-----2-0---|--------0-0---0-|--2-2-----2-0---|----------------|
A|--------------2-|------------2---|--------------2-|--------0-2-----|
E|0---------------|3-----3---------|----------------|3-----3-----3-2-|

G|-------0-0------|----------------|-------0-0------|----------------|
D|----2-----2-0---|--------0-0---0-|--2-2-----2-0---|--------0-------|
A|--------------2-|------------2---|--------------2-|----------2-0---|
E|0---------------|3-----3---------|----------------|3-------------0r|


Verse

G|-------11\10.5-7-9-|0------7--------|-------11\10.5-----|0------7-7------|
D|----9------___-----|----9-----9-7-9-|----9------___-----|----9-----9-7-9-|
A|7----------___-----|----------------|7----------___-----|----------------|
E|-----------___-----|----------------|-----------___-----|----------------|

G|-------11/11.5\10.5-----|0------7----7-9-|-------11\10.5--|0------7--------|
D|----9------________-----|----9-----9-----|----9-----------|----9-----9-7-5-|
A|7----------________-----|----------------|7---------------|----------------|
E|-----------________-----|----------------|----------------|----------------|


Pre-Chorus

G|--------0-------|------4------__---|--------0-------|------4---7/9-7---|
D|------2-------2-|-------5--5\4.5-4-|------2-------2-|-------5---__---9-|
A|0---------------|0------------__---|0---------------|0----------__-----|
E|----------------|-------------__---|----------------|-----------__-----|

G|--------0-------|-------4-----__---|--------0-------|------2/4-0-------|
D|------2-------2-|--------5-5\4.5-4-|------2---------|-------__---4-0---|
A|0---------------|0------------__---|0---------------|0------__---------|
E|----------------|-------------__---|----------------|-------__-------3-|


Chorus

G|-------0-0------|----------------|-------0-0------|----------------|
D|----2-----2-0---|--------0-0---0-|--2-2-----2-0---|----------------|
A|--------------2-|------------2---|--------------2-|--------0-2-----|
E|0---------------|3-----3---------|----------------|3-----3-----3-0-|

G|-------0-0------|----------------|-------0-0------|----------------|
D|----2-----2-0---|--------0-0---0-|--2-2-----2-0---|----------------|
A|--------------2-|------------2---|--------------2-|--------0-2-----|
E|0---------------|3-----3---------|----------------|3-----3-----3-2-|


Instrumental - Outro

G|----------------|----------------|--------0-------|----------------|
D|----------2-0---|----------0-----|------2-----2---|--------0-------|
A|--------------2-|------------2---|----------------|------------2---|
E|0r--------------|3-----3-------3-|0---------------|3-----3---------|

G|--------0-------|----------------|--------0-------|----------------|
D|------2-----2---|--------0-------|------2-----2---|--------0-------|
A|----------------|------------2---|----------------|------------2---|
E|0---------------|3-----3---------|0---------------|3-----3---------|

G|------3/4-0-------|----------------|--------0-------|----------------|
D|-------__-----2---|--------0-------|------2-----2---|--------0-------|
A|-------__---------|------------2---|----------------|------------2---|
E|0------__---------|3-----3---------|0---------------|3-----3---------|

G|--------0-------|----------------|--------0-------|----------------|
D|------2-----2---|--------0-------|------2-----2---|--------0-------|
A|----------------|------------2---|----------------|------------2---|
E|0---------------|3-----3---------|0---------------|3-----3---------|


For this next bit you need to pull out your stick and start whacking the strings.

This section has been extended a lot to allow for all the 14-14
notes.  Towards the end it goes back to the normal length.  It looks
a bit confusing but trust the tab and listen to the song if you're unsure.

G|--------------------------------|--------------------------------|
D|1414141414141416--161616141414--|--------------------------------|
A|--------------------------------|10101010101010101414141417171414|
E|--------------------------------|--------------------------------|

G|--------------------------------|--------------------------------|
D|1414141414141416--161616141414--|--------------------------------|
A|--------------------------------|10101010101010101717171714141414|
E|--------------------------------|--------------------------------|

G|--------------------------------|--------------------|
D|14141414141414141616161619191919|141412129977777799-/|
A|--------------------------------|--------------------|
E|--------------------------------|--------------------|

G|--------------------------------|----------------|----------|
D|1414141414141416--161616141414--|----------------|----------|
A|--------------------------------|1010101010101010|14\-------|
E|--------------------------------|----------------|-__---3---|
                                                       now drop your stick and
                                                       go back to playing normally

G|-------0-0------|----------------|-------0-0------|----------------|
D|----2-----2-0---|--------0-0---0-|--2-2-----2-0---|--------0-------|
A|--------------2-|------------2---|--------------2-|----------2-----|
E|0---------------|3-3---3---------|----------------|3-3---3-----3-0-|

G|-------0-0------|----------------|-------0-0------|----------------|
D|2---2-----2-0---|--------0-0---0-|--2-2-----2-0---|------------0-2-|
A|--------------2-|------------2---|--------------2-|--------0-2-----|
E|----------------|3-3---3---------|----------------|3-3---3---------|

G|----------------|----------------|
D|----------------|----------------|
A|----------------|----------------|
E|0r--------------|----------------|





Comments


Popular John Butler Trio tabs & chords
Company Sin Bass Tabs
Funky Tonight Tabs
Mist Tabs
Old Man Intro Tabs
One Way Road 3 Tabs
Seeing Angels Tabs
Treat Yo Mama Tabs
Trees Tabs
Zebra 2 Tabs
Good Excuse Ukulele


Song lyrics



↑ Back to top | Tablatures and chords are parodies/interpretations of the original songs. You may use it for private study, scholarship, research or language learning purposes only
© 2014 AZChords.com Contact us | Privacy policy | DMCA | Add/correct tabs | Request tabs | Top 50 tabs