>
 >
Hello Intro

Hello Intro Guitar Tabs

John Butler Trio - Hello Intro chords, tabs, tablatures, lyrics

Guitar lessons | Add/correct | Request | Top 50 tabs Artists:  A B C D E F G H I J K L M N O P Q R S T U V W X Y Z 0-9

Hello Intro Guitar Tabs – John Butler Trio

CD, Sheet music, Poster

Do you like Hello Intro? Share with your friends now
Tabs
-----------------------------------------------------------------------------
                             HELLO - JOHN BUTLER TRIO
-----------------------------------------------------------------------------


Tuning:6-D 5-A 4-D 3-D 2-B 1-E     capo 2ND fret

Ill only do the intro and solo as I do for most songs. If you dont like it you can go 
time, money and effort buying the tab book as I did. Just remember im making life a lot 
for you john butler fans.

GTR 1.(acous)
  E5                                              E5/G
|--------------------------------------------------------------------------|
|------------3-------------3--------3-----------3-------3----------3-------|
|-------0h2----------2---------------------2-------------------2-----------|
|------------0---------0------------0--------0----------0--------0---------|
|-----------------------------------------------------------------------3--|
|----0----0-----0--------------0-------0------------3-------3--------------|

E5/D        E5                 GTR2.(acous/elec)dbls.w/slight dist
|------------------------------------------------------------|-------------|
|--3-----------3------3------------3--------3------------3---|----3--------|
|--2------2-----------2------2----------------------2--------|---------2---|
|-----------0---------0---------0-----------0---------0------|----0--------|
|------------------------------------------------------------|-------------|
|------0----------0-------0------------0--------0------------|--3---3------|

|---------------------------------------|
|------3-------3-----------------3------|
|--------------2---------2--------------|
|---0-----------------------0-----------|
|----------3----------------------------|
|--------------------0------------------|

Here's the solo:

fuzz+wah-wah  GTR2
|----------------------------------------------------------------------------|
|---1h3-=======-------1h3p1--------------------------------------------------|
|---0------------------------2-======--2/32-------2--------------------------|
|-----------------------------------------------------0h3-2--========--------|
|----------------------------------------------------------------------------|
|----------------------------------------------------------------------------|

                                            (fb)
|-----------------------------8h10-====--10b-rb10--10-8h10p8----8----------|
|-------------------------------------------------------------10---10-10---|
|--------------------------------------------------------------------------|
|-2h3------2---------------------------------------------------------------|
|------------------3-------------------------------------------------------|
|--------------------------------------------------------------------------|

               (qb)
|----------------------------------------------------------------------------|
|-10-10-10-10-10b---------------10-----5----5h6p5----------------------5-----|
|----------------------------------------------------7----5------------------|
|-------------------------------------------------------------7---7----------|
|----------------------------------------------------------------------------|
|----------------------------------------------------------------------------|


|-----------------------------------------------------------------8--------|
|---5---5h6---5---------------5-------5--6----5------5-6-5--5h6------------|
|---------5-------7---5-----------5--------------7-------------------------|
|-------------------------7------------------------------------------------|
|--------------------------------------------------------------------------|
|--------------------------------------------------------------------------|

|----------------------------------------------------------------------------|
|----------------------------------------------------------------------------|
|----------------------------------------------------------------------------|
|----------------------------------------------------------------------------|
|----------------------------------------------------------------------------|
|-----------------------------12-12-12-12-12-12-12-12-14-14-14-14-123-3-3----|
BASS ARR. FOR GTR
.............................................................................
GTR2
|-------8-----8-----8----8-8-----------------------------------------------|
|--5h6----5h6---5h6-5----5-6-----------------------------------------------|
|--------------------------------------------------------------------------|
|---------------------7-------0--------------------------------------------|
|-----------------------------0--------------------------------------------|
|-----------------------------0--------------------------------------------|

|----------------------------------------------------------------------------|
|----------------------------------------------------------------------------|
|----------------------------------------------------------------------------|
|----------------------------------------------------------------------------|
|----------------------------------------------------------------------------|
|--3-3-3-3-3-3-3/7-7-7-75-5-7-7/12-12-12-12-12-12-12-12/14-14-14-14-123-3----|
BASS ARR. FOR GTR

|----------------------------------------------------------------------------|
|----------------------------------------------------------------------------|
|----------------------------------------------------------------------------|
|----------------------------------------------------------------------------|
|----------------------------------------------------------------------------|
|--3-3-3-3-3-3-3-3/10-10-107-7-7-7-7/12-12-12-12-12-12-12-12/14-14-14-14/----|
BASS ARR. FOR GTR

|--------------------------------------------------------------------------|
|--------------------------------------------------------------------------|
|--------------------------------------------------------------------------|
|--------------------------------------------------------------------------|
|--------------------------------------------------------------------------|
|-17-17-17-17-12-12-10-10-7-7-5-5-5-5-5-5/7-7-7/12-12-12-12-12-12-12-12/14-|
BASS ARR. FOR GTR

|--------------------------------------------------------------------|
|--------------------------------------------------------------------|
|--------------------------------------------------------------------|
|--------------------------------------------------------------------|
|--------------------------------------------------------------------|
|-14-14-1412-12-12-12-12-3-3-3-3--3-3-3-3/7-7-7-7-7/12-12-12-12------|
BASS ARR. FOR GTR
....................................................................
GTR2                            W/SLIGHT DIST
|------------------------------------------------------------------|
|------------------------------------3-3-3-3--3-3-3--3-3-3-3-3-----|
|------------------------------------2-2-2-2--2-2-2--2-2-2-2-2-----|
|----------------------------------0-------------------------------|
|------------------------------------------------------------------|
|------------------------------------------------------------------|

What the heck, ill do the outro to.

|--------------------------------------------------------------------------|
|----3----3---3---3----3------------3-3-3-3---------------3-3-----3--3-x-x-|
|-------2---2---2---2------2--------2-2-2-2---------------2-2-----2--2-x-x-|
|-------------------------------------------0-0-----------x----------------|
|--0---------------------------------------------3-0--0---3----0-----------|
|--0-------------------------3--3------------------------------0-----------|

|--------------------------------------------------------------------------|
|-x-x-3-3-3------------3---3-3--x-----------x-----3-------3-~~3-x-x-x-x-x-x|
|-x-x-2-2-2------------2---2-2--x-----------x-----2-------2---2-x-x-x-x-x-x|
|----------------------------------0--------------0------------------------|
|-----------0------------------------3--3------3------0--------------------|
|-----------0---3---3---------------------------------0--------------------|

|--------------------------------------------------------------------------|
|-x-----------3--3-3-----------------------3~~~3---x-x-x-x-x-3-3-----------|
|-x-----------2--2-2----2---2---2----------2---2---x-x-x-x-x-2-2-----------|
|-----------------------------------0--------------------------------------|
|---0-----------------3---3---3---3----0-------------------------0---------|
|---0--3--3----------------------------0-------------------------0---3-3---|

|-------------------------------------------|
|-3--3-3-------3-3-3-3----------------------|
|-2--2-2-------2-2-2-2----------------------|
|-------------------------------------------|
|--------3-3------------0============-------|
|-----------------------0============-------|


| =  let ring
| fb  full bend(two semitone[one tone])
| rb  release bend
| qb  quarter bend(half semitone)
| hb  half bend (one semitone)
| /  slide up
|   slide down
| h  hammer-on
| p  pull-off
| ~  vibrato
| +  harmonic
| x  Mute note
=============================================================================





Comments


Popular John Butler Trio tabs & chords
Funky Tonight Live Bass Tabs
Id Do Anything Soldiers Lament Bass Tabs
Id Do Anything Chords
All Night Long Tabs
Betterman 2 Tabs
Betterman Intro Tabs
Home Is Where The Heart Is Tabs
Losing You 2 Tabs
Mystery Man Tabs
Revolution Tabs


Song lyrics



↑ Back to top | Tablatures and chords are parodies/interpretations of the original songs. You may use it for private study, scholarship, research or language learning purposes only
© 2014 AZChords.com Contact us | Privacy policy | DMCA | Add/correct tabs | Request tabs | Top 50 tabs