» » »

John Butler Trio, Caroline Tabs (ver.2)

Artists:  A B C D E F G H I J K L M N O P Q R S T U V W X Y Z # 

Caroline Tabs (ver.2)

John Butler Trio Tabs
 Rating:
4.6/5 (11 votes)
Caroline lessons Tabs too difficult? Try these video lessons and learn fast
                -------------------------------------------------------------------------------
                             Caroline - John Butler Trio
-------------------------------------------------------------------------------

Tuning:CGCGCE
Capo: 3rd
tab relative to capo or play it just like it is but up 3 frets with the capo on
e|--3-0----------------------------------------------------|
B|------4-2-0-------------0---0-----0------0-----0---------|
G|------------4-2-0---0-----0-----2---2--4---4-5---0-------|
D|------------------4--------------------------------------|x10
A|---------------------------------------------------------|
E|----------------------0----------------------------------|

e|---------------------------------------------------------|
B|----0------0------0-------------0------0------0----------|
G|--2---2--4---4--5---5--9-7-2--0---0--2---2--4---4-5-4-0--|
D|---------------------------------------------------------|x2
A|---------------------------------------------------------|
E|---------------------------------------------------------|

e|--3-0----------------------------------------------------|
B|------4-2-0-------------0---0-----0------0-----0---------|
G|------------4-2-0---0-----0-----2---2--4---4-5---0-------|
D|------------------4--------------------------------------|x4
A|---------------------------------------------------------|
E|----------------------0----------------------------------|

e|---------------------------------------------------------|
B|----0------0------0-------------0------0------0----------|
G|--2---2--4---4--5---5--9-7-2--0---0--2---2--4---4-5-4-0--|
D|---------------------------------------------------------|x4
A|---------------------------------------------------------|
E|---------------------------------------------------------|

i dont know hat happens when john sings caroline oh caroline caroline etc

outro

e|--3-0-----------------|
B|------4-2-0-----------|
G|------------4-2-0---0-|
D|------------------4---|x3
A|----------------------|
E|----------------------|
            
Submit corrections

comments powered by Disqus
↑ Back to top | John Butler Trio Tabs for Caroline. Lyrics for acoustic guitar and electric guitar. Tablatures and chords are parodies/interpretations of the original songs. You may use it for private study, scholarship, research or language learning purposes only