» » »

Caroline Tabs (ver.1)

Artists:  A B C D E F G H I J K L M N O P Q R S T U V W X Y Z # 

Caroline Tabs (ver.1)

John Butler Trio
Rating:
4/5 (3 votes)

Hard to play? Try these video lessons and learn fast.
                "Caroline As Recorded By the John Butler Trio in Grand National 2007" 

By James


Enjoy..

Feel free to comment 



TUNING : 6=Eb
              5=Ab
              4=Db
              3=Gb   
              2=Bb
              1=Eb

HALF STEP DOWN TUNING With Capo on 4th

CAPO ON 4th 

Tabs relating to capo Tab 0 = Capo 4th Fret

[tab]


INTRO 
VERSE 1.
BRIDGE
VERSE 2.
CHORUS (repeat)
EXTRA CHORUS SECTION
OUTRO

INTRO
Repeat:                                                1st Time Bar      2nd Time Bar
Eb-3---0--------------------------------|----------------|------------------|
Bb---3---1---0----------0---------0-----|----0-----1/0---|----0------3------|
Gb---------2---0---0------0-----2---2---|--4---4---0----0|--4---4-------2---|
Db---------------2---0------------------|----------------|------------------|
Ab---------------------------3--3------3|--3-----3-------|--3-----3--3----3-|
Eb-------------------3------------------|----------------|------------------|
Let ring Cascading effect
w/clean tone

VERSE

      1.Got your eyes open but you cannot see
   

Eb-3---0-------------------------------------------------|
Bb---3---1---0----------0---------0---------0-----1/0----|
Gb---------2---0---0------0-----2---2-----4---4---0----0-|
Db---------------2---0-----------------------------------|
Ab---------------------------3--3------3--3-----3--------|
Eb-------------------3-----------------------------------|




    1.Got what you want, do you got what you need?

Eb-3---0-------------------------------------------------|
Bb---3---1---0----------0---------0---------0------3---3-|
Gb---------2---0---0------0-----2---2-----4---4------0---|
Db---------------2---0-----------------------------------|
Ab---------------------------3--3------3--3-----3--3-----|
Eb-------------------3-----------------------------------|

    1.Til one day you see something you cannot bear


Eb-3---0-------------------------------------------------|
Bb---3---1---0----------0---------0---------0-----1/0----|
Gb---------2---0---0------0-----2---2-----4---4---0----0-|
Db---------------2---0-----------------------------------|
Ab---------------------------3--3------3--3-----3--------|
Eb-------------------3-----------------------------------|


        1.Telling you girl yes you bet-ter be-ware.
   


Eb-3---0-------------------------------------------------|
Bb---3---1---0----------0---------0---------0-----1/0----|
Gb---------2---0---0------0-----2---2-----4---4--------0-|
Db---------------2---0-----------------------------------|
Ab---------------------------3--3------3--3-----3--------|
Eb-------------------3-----------------------------------|


     1.Her papa loved her so much you could see.

Eb-3---0-------------------------------------------------|
Bb---3---1---0----------0---------0---------0-----1/0----|
Gb---------2---0---0------0-----2---2-----4---4---0----0-|
Db---------------2---0-----------------------------------|
Ab---------------------------3--3------3--3-----3--------|
Eb-------------------3-----------------------------------|


     1.Loved her too much if you know what I mean.

Eb-3---0-------------------------------------------------|
Bb---3---1---0----------0---------0---------0-----1/0----|
Gb---------2---0---0------0-----2---2-----4---4--------0-|
Db---------------2---0-----------------------------------|
Ab---------------------------3--3------3--3-----3--------|
Eb-------------------3-----------------------------------|


     1.So she left home young ,yeah, she moved down to town.

Eb-3---0-------------------------------------------------|
Bb---3---1---0----------0---------0---------0-----1/0----|
Gb---------2---0---0------0-----2---2-----4---4---0----0-|
Db---------------2---0-----------------------------------|
Ab---------------------------3--3------3--3-----3--------|
Eb-------------------3-----------------------------------|

     1.Looking for love that she never found

Eb-3---0-------------------------------------------------|
Bb---3---1---0----------0---------0---------0-----1/0----|
Gb---------2---0---0------0-----2---2-----4---4---0----0-|
Db---------------2---0-----------------------------------|
Ab---------------------------3--3------3--3-----3--------|
Eb-------------------3-----------------------------------|

BRIDGE



Eb------------------------------------------------------------------------------------|
Bb---------0-----------------------------------------1--------1-----------------------|
Gb----2----------2--------0------------------------0--------0------2------------------|
Db-2----2----------0---------2----(0)/2--0-------0--------2----------0----------------|
Ab-0----------2------2--3------3------------2-----------0--------2------2-(2)/3--2----|
Eb--------------------------------------------3------------------------------------3--|

Eb------------------------------------------------------------------------------------|
Bb---------1-----------------------------------------1--------1-----------------------|
Gb----2----------2---2-----0------------------------0--------0------2---2-------------|
Db------2----------0----------2----(0)/2--0-------0--------2----------0---------------|
Ab-0----------2--------3--------3------------2-----------0--------2-------(2)/3--2----|
Eb--------------------------------------------3------------------------------------3--|




VERSE

      2. She played it hard and yes she played it rough

Eb-3---0-------------------------------------------------|
Bb---3---1---0----------0---------0---------0-----1/0----|
Gb---------2---0---0------0-----2---2-----4---4---0----0-|
Db---------------2---0-----------------------------------|
Ab---------------------------3--3------3--3-----3--------|
Eb-------------------3-----------------------------------|




    2. Made her feel safe and it made her feel tough

Eb-3---0-------------------------------------------------|
Bb---3---1---0----------0---------0---------0------3---3-|
Gb---------2---0---0------0-----2---2-----4---4------0---|
Db---------------2---0-----------------------------------|
Ab---------------------------3--3------3--3-----3--3-----|
Eb-------------------3-----------------------------------|

    2. And Rock by rock she built those walls ev-'ry day

Eb-3---0-------------------------------------------------|
Bb---3---1---0----------0---------0---------0-----1/0----|
Gb---------2---0---0------0-----2---2-----4---4---0----0-|
Db---------------2---0-----------------------------------|
Ab---------------------------3--3------3--3-----3--------|
Eb-------------------3-----------------------------------|


        2. Built her-self a tow er so far away.       And From (to chorus)

Eb-3---0-------------------------------------------------|
Bb---3---1---0----------0---------0---------0-----1/0----|
Gb---------2---0---0------0-----2---2-----4---4--------0-|
Db---------------2---0-----------------------------------|
Ab---------------------------3--3------3--3-----3--------|
Eb-------------------3-----------------------------------|

CHORUS

Eb-------------------------------------------------------------------|
Bb--0---0-0-0-0-0---0-0-0-0---1---1-1-1-1-1-1-1----------------------|
Gb--2---2-2-2-2-2---2-2-2-2---0---0-0-0-0-0-0-0----------------------|
Db--2---2-2-2-2-0---0-0-0-0---2---2-2-2-2-2-2-2----------------------|
Ab--0---0-0-0-0-2---2-2-2-2---3---3-3-3-3-3-3-3----------------------|
Eb-------------------------------------------------------------------|

Eb----------------------------------------------------------|
Bb--0---0-0-0-0---1---1-1-1-1---0---0-0-0-0-----------------|
Gb--0---0-0-0-0---0---0-0-0-0---2---2-2-2-2-----------------|
Db--0---0-0-0-0---2---2-2-2-2---0---0-0-0-0-----------------|
Ab----------------0---0-0-0-0---2---2-2-2-2-(2)/3---2-------|
Eb--3---3-3-3-3----------------------------------------3----|




Eb-------------------------------------------------------------------|
Bb--0---0-0-0-0-0---0-0-0-0---1---1-1-1-1-1-1-1----------------------|
Gb--2---2-2-2-2-2---2-2-2-2---0---0-0-0-0-0-0-0----------------------|
Db--2---2-2-2-2-0---0-0-0-0---2---2-2-2-2-2-2-2----------------------|
Ab--0---0-0-0-0-2---2-2-2-2---3---3-3-3-3-3-3-3----------------------|
Eb-------------------------------------------------------------------|

Eb----------------------------------------------------------|
Bb--0---0-0-0-0---1---1-1-1-1---0---0-0-0-0-----------------|
Gb--0---0-0-0-0---0---0-0-0-0---2---2-2-2-2-----------------|
Db--0---0-0-0-0---2---2-2-2-2---0---0-0-0-0-----------------|
Ab----------------0---0-0-0-0---2---2-2-2-2-(2)/3---2-------|
Eb--3---3-3-3-3----------------------------------------3----| 

Chorus First Time  and then continue After 2nd Verse with Chorus Shown and then continue


EXTRA CHORUS SECTION

Eb---------------------------------0--0-0-0---0--0-0-0-0---0--0-0-0-0-----|
Bb---0-0-0-0---1---1-1-1-1-1-1-1---3--3-3-3---3--3-3-3-3---3--3-3-3-3-----|
Gb---2-2-2-2---0---0-0-0-0-0-0-0---2--2-2-2---2--2-2-2-2---2--2-2-2-2-----|
Db---0-0-0-0---2---2-2-2-2-2-2-2---0--0-0-0---0--0-0-0-0---0--0-0-0-0-----|
Ab---2-2-2-2---3---3-3-3-3-3-3-3------------------------------------------|
Eb------------------------------------------------------------------------|

Eb------------------------------------------------0--0-0-0-0--0--0-0-0-0---|
Bb-1--1-1-1-1---1--1--0---1---1-1-1-1---0-1-0-1---3--3-3-3-3--3--3-3-3-3---|
Gb-2--2-2-2-2---2--0--0---0---0-0-0-0---0-0-0-0---2--2-2-2-2--4--4-4-4-4---|
Db-2--2-2-2-2---2--2--0---0---0-0-0-0---0-0-0-0---0--0-0-0-0--0--0-0-0-0---|
Ab-0--0-0-0-0---0--3-------------------------------------------------------|
Eb--------------------3---3---3-3-3-3---3-3-3-3----------------------------|


Eb--0--0-0-0-0--0--0-0-0-0------------------------------------------------|
Bb--3--3-3-3-3--3--3-3-3-3---1--1-1-1-1-1--1--1--0--1--1-1-1-1-0-1-0-1-3--|
Gb--5--5-5-5-5--5--5-5-5-5---2--2-2-2-2-2--2--0--0--0--0-0-0-0-0-0-0-0-2--|
Db--0--0-0-0-0--0--0-0-0-0---2--2-2-2-2-2--2--2--0--0--0-0-0-0-0-0-0-0-0--|
Ab---------------------------0--0-0-0-0-0--0--3--3------------------------|
Eb--------------------------------------------------3--3-3-3-3-3-3-3-3----|


Eb--0--0-0-0-0-0--0-0-0-0--0-3-3-3-3-3-3-3-3-3-3--------------------------------|
Bb--3--3-3-3-3-3--3-3-3-3--3-3-3-3-3-3-3-3-3-3-3--1-1-1-1-1-1-1-1-1-1-1-1-1-1-1-|
Gb--2--2-2-2-2-4--4-4-4-4--5-5-5-5-5-5-5-5-5-5-5--2-2-2-2-2-2-0-0-0-0-0-0-0-0-2-|
Db--0--0-0-0-0-0--0-0-0-0--0-0-0-0-0-0-0-0-0-0-0--2-2-2-2-2-2-0-0-0-0-0-0-0-0-2-|
Ab------------------------------------------------0-0-0-0-0-3-------------------|
Eb------------------------------------------------------------3-3-3-3-3-3-3-3---|

Eb-----------------------------------------------|
Bb-1--1-1-1-1---1--1--0---1---1-1-1-1---0-1-0-1-1|
Gb-2--2-2-2-2---2--0--0---0---0-0-0-0---0-0-0-0-2|
Db-2--2-2-2-2---2--2--0---0---0-0-0-0---0-0-0-0-2|
Ab-0--0-0-0-0---0--3-----------------------------|
Eb--------------------3---3---3-3-3-3---3-3-3-3--|

Eb-------------------------|
Bb-1--1-1-1-1-1--1--0---0--|
Gb-2--2-2-2-2-2--0--0---0--|
Db-2--2-2-2-2-2--2--0---0--|
Ab-0--0-0-0-0-0--3---------|
Eb------------------3---3--|

OUTRO

Eb-3---0----------------------3---0-------------------3---0--------------|
Bb---3---1---0----------0-------3---1---0---------0-----3---1---0---------|
Gb---------2---0---0------0-----------2---0---0-----0---------2---0---0---|
Db---------------2--------------------------2-----------------------2-----|
Ab------------------------------------------------------------------------|
Eb-------------------3--------------------------3------------------------3|[/tab]
            
Hard to play? Try these video lessons and learn fast. | Correct




comments powered by Disqus
↑ Back to top | Tablatures and chords are parodies/interpretations of the original songs. You may use it for private study, scholarship, research or language learning purposes only