» » »

Ocean Size Bass tabs (ver.2)

Artists:  A B C D E F G H I J K L M N O P Q R S T U V W X Y Z # 

Ocean Size Bass tabs (ver.2)

Janes Addiction
Rating:
0/5 (0 votes)

Hard to play? Try these video lessons and learn fast.
                Janes Addiction - Ocean Size

Intro (3......4!)
G|---------------------------------------|
D|-----5------------------5--------------|
A|---7---4-0-0--5-7-5-7-7---4--0-0-5-7-5-|
E|-0-------------------0-----------------|

Verse (Wish I was ocean size.....)
G|--------------------|
D|-----5--------------|
A|-7-7---4-0-0--5-7-5-|
E|--0-----------------|

Pre-Chorus 1 (It ain't easy livin'.....)
G|----(11)h12-9-7-9-(7)h9-7h9---------------|
D|---------------------------9p7h9-------9--|
A|-7-------------------------------7--7-7-7-| let ring
E|-0-----------------------------------0----|

Chorus (I want to be.....)
G|------------------------------|
D|------------------------------|
A|-----------5-5-5--------------|
E|-\3-3-3-3----------5-5-3-5--5-|

Chorus Outro
G|-------------------------|----------------|
D|-----5-------------------|-----5----------|
A|-7-7---4-0-0--0-0--0-7-5-|-7-7---4--0-0-0-|
E|--0----------------------|--0-------------|

Break 1
G|---------------|
D|----5--5-5h7---|let ring
A|-------------5-|let ring
E|-0----------5--|let ring

Solo 1
G|--------------------|
D|-----5--------------|
A|-7-7---4-0-0--5-7-5-|
E|--0-----------------|

Pre-Chorus 2  (Aaaaaahhh.....)
G|--------------7-9-(7)h9-7h9---------------|
D|---------------------------9p7h9-------9--| let ring
A|-7-------------------------------7--7-7-7-| let ring
E|-0-----------------------------------0----|

Chorus (I want to be.....)
G|------------------------------|
D|------------------------------|
A|-----------5-5-5--------------|
E|-\3-3-3-3----------5-5-3-5--5-|

Chorus Outro
G|-------------------------|----------------------|
D|-----5-------------------|-----5----------------|
A|-7-7---4-0-0--0-0--0-7-5-|-7-7---4--0-0-0-5-7-5-|
E|--0----------------------|--0-------------------|

Verse
G|--------------------|
D|-----5--------------|
A|-7-7---4-0-0--5-7-5-|
E|--0-----------------|

Break 2
G|---------------|
D|----5--5-5h7---|let ring
A|-------------5-|let ring
E|-0----------5--|let ring

Solo 2
G|--------------------|
D|-----5--------------|
A|-7-7---4-0-0--5-7-5-|
E|--0-----------------|

End
G|-----|
D|-----|
A|-----|
E|--0--|
            
Hard to play? Try these video lessons and learn fast. | Correct




comments powered by Disqus
↑ Back to top | Tablatures and chords are parodies/interpretations of the original songs. You may use it for private study, scholarship, research or language learning purposes only