>
 >
Ocean Size 1

Ocean Size 1 Guitar Tabs

Janes Addiction - Ocean Size 1 chords, tabs, tablatures, lyrics

Guitar lessons | Add/correct | Request | Top 50 tabs Artists:  A B C D E F G H I J K L M N O P Q R S T U V W X Y Z 0-9

Ocean Size 1 Guitar Tabs – Janes Addiction

CD, Sheet music, Poster

Do you like Ocean Size 1? Share with your friends now
Bass TabsBass Tabs v2ChordsTabsTabs v2Tabs v3Ukulele
JANE'S ADDICTION - OCEAN SIZE
Tom W (marmite)

Intro on 12 String Acoustic

|--------------0-----------|--------------0-----------|
|--------0-------0---------|--------0-------0---------|
|----4-----4-------4---4---|----3-----3-------3---3---|
|------------5-------------|------------4-------------|
|--5---5-------------5---5-|--4---4-------------4---4-|
|--------------------------|--------------------------|

|--------------0-----------|--------------0--0--0--|--------------0-----------|
|--------0-------0---------|--------0-----0--0--0--|--------0-------0---------|
|----2-----2-------2---2---|----1-----1---1--2--3--|----4-----4-------4---4---|
|------------3-------------|------------2-2--3--4--|------------5-------------|
|--3---3-------------3---3-|--2---2-------2--3--4--|--5---5-------------5---5-|
|--------------------------|-----------------------|--------------------------|

|--------------0-----------|--------------0-------0--|------------------|
|--------0-------0---------|--------0-------0-----0--|------------------|
|----3-----3-------3---3---|----2-----2-------2---2--|------------------|
|------------4-------------|------------3---------3--|------------------|
|--4---4-------------4---4-|--3---3-------------3-3--|------------------|
|--------------------------|-------------------------|------------------|

Main Rhythm Part on Electric with Distortion

|--------------------------|------------------------------|
|--------------------------|------------------------------|
|--------------------------|------------------------------|
|--2----2--2---------------|------------------2-2--2------|
|--2----2--2--2---2--2--2--|--4-4-4-4--2-2-2--2-2--2------|
|--0----0--0--0h3-3--3--3--|--5-5-5-5--3-3-3--0-0--0-15/--|

|--------------------------|-----------------------------------|
|--------------------------|-----------------------------------|
|--------------------------|-----------------------------------|
|--2----2--2---------------|-----------------------------------|
|--2----2--2--2------2--2/-|--4-4-4-4--2/--16-16-16-16-16-14/--|
|--0----0--0--0h3-3--3--3/-|--5-5-5-5--3/--17-17-17-17-17-15/--|

|--------------------------|-----------------------------|
|--------------------------|-----------------------------|
|--------------------------|-----------------------------|
|--2----2--2---------------|------------------2-2--2--0--|
|--2----2--2--2------2--2/-|--4-4-4-4--2-2-2--2-2--2--0--|
|--0----0--0--0h3-3--3--3/-|--5-5-5-5--3-3-3--0-0--0--0--|

|--------------------------|-----------------------0-----|
|--------------------------|-----------------------0-----|
|--------------------------|-----------------------------|
|--2----2--2---------------|--------------------2-----2--|
|--2----2--2--2------2--2/-|--4-4-4-4--2-2-2----2-----2--|
|--0----0--0--0h3-3--3--3/-|--5-5-5-5--3-3-3-3b-0-----0--|

|-----------------------|-----------------------------|
|-----------------------|-----------------------------|
|-----------------------|------------------------0--0-|
|--2----2---------------|--------------------2---0--0-|
|--2----2------2--2--2/-|--4-4-4-4--2-2-2----2--------|
|--0----0------3--3--3/-|--5-5-5-5--3-3-3-3b-0--------|

|--------------------------|-----------------------------------|
|--------------------------|-----------------------------------|
|--------------------------|-----------------------------------|
|--2----2--2---------------|-----------------------------------|
|--2----2--2--2------2--2/-|--4-4-4-4--2/--16-16-16-16-16-14/--|
|--0----0--0--0h3-3--3--3/-|--5-5-5-5--3/--17-17-17-17-17-15/--|

|--------------------------|----------------------------|
|--------------------------|----------------------------|
|--------------------------|----------------------------|
|--2----2--2---------------|--------------------2---0---|
|--2----2--2--2------2--2/-|--4-4-4-4--2-2-2----2---0---|
|--0----0--0--0h3-3--3--3/-|--5-5-5-5--3-3-3-3b-0---0---|

|--------------------------|-----------------------0-----|
|--------------------------|-----------------------0-----|
|--------------------------|-----------------------------|
|--2----2--2---------------|--------------------2-----2--|
|--2----2--2--2------2--2/-|--4-4-4-4--2-2-2----2-----2--|
|--0----0--0--0h3-3--3--3/-|--5-5-5-5--3-3-3-3b-0-----0--|

Interlude 1 On Electric with Distortion

|--12------10----9----10--|------9----------------|
|-------------------------|---------12----9r------|
|-------------------------|--------------------9--|
|-------------------------|-----------------------|
|-------------------------|-----------------------|
|-------------------------|-----------------------|

|--14b---------------|--14r-12--14--12--10----9----|--12------10----9----10--|
|--------------------|-----------------------------|-------------------------|
|--------------------|-----------------------------|-------------------------|
|--------------------|-----------------------------|-------------------------|
|--------------------|-----------------------------|-------------------------|
|--------------------|-----------------------------|-------------------------|

|------9-----------------|----------------------|----------------------|------|
|---------12----10----9--|--9----7----5----3----|--2----0--------------|------|
|------------------------|----------------------|------------2---------|------|
|------------------------|----------------------|-----------------2----|------|
|------------------------|----------------------|----------------------|------|
|------------------------|----------------------|----------------------|------|


Pre-Chorus on 12 String Acoustic

--2--2--0-----------2--0-0-|--------2--0----0--0--0-0-|
--0--0--0--0--2--0--0--0-0-|--2--0--0--0----0--0--0-0-|
--1-----1--1--1--1--1--1-1-|--1--1--1--1----0--1--1-1-|
--2-----2-----2--2--2--2-2-|--2--2--2--2----2--2--2-2-|
--2-----2-----2--2--2--2-2-|--2--2--2--2----2--2--2-2-|
--0-----0-----0--0--0--0-0-|--0--0--0--0----0--0--0-0-|


                            *Electric with Distortion comes in here and plays same
--2--2--0-----------2--0-0-|--------2--0--0--0--0--3-3-|
--0--0--0--0--2--0--0--0-0-|--2--0--0--0--0--0--0--3-3-|
--1-----1--1--1--1--1--1-1-|--1--1--1--1--1--1--1--0-0-|
--2-----2-----2--2--2--2-2-|--2--2--2--2--2--2--2--0-0-|
--2-----2-----2--2--2--2-2-|--2--2--2--2--2--2--2--x-x-|
--0-----0-----0--0--0--0-0-|--0--0--0--0--0--0--0--3-3-|

--3----3------3--3-3-3-3-|--------2-----3p2----0----|--0----0---0-0--0--0--0--|
--3----3------3--3-3-3-3-|--3--------3------3-------|--2----2---2-2--2--2--2--|
--0----0------0--0-0-0-0-|--2--2--------------------|--2----2---2-2--2--2--2--|
--0----0------0--0-0-0-0-|--0-----------------------|--2----2---2-2--2--2--2--|
--x----x------x--x-x-x-x-|--------------------------|--0----0---0-0--0--0--0--|
--3----3------3--3-3-3-3-|--------------------------|-------------------------|


Pre Solo on 12 String Acoustic

             *First Time
             "Second Time
             *     "
|--0--|--3--|--0--|--5--|
|--0--|--3--|--0--|--5--|
|--1--|--0--|--7--|--6--|
|--2--|--0--|--7--|--7--|
|--2--|--x--|--0--|--7--|
|--0--|--3--|-----|--5--|


Sorry not tabbing solo... WAY TOO HARD...

Anyway, enjoy!!!





Comments


Popular Janes Addiction tabs & chords
I Would For You Bass Tabs
Ocean Size Bass Tabs
Whores 1 Bass Tabs
Been Caught Stealin 2 Tabs
Jane Says Solo Unplugged Tabs
Mountain Song 3 Tabs
Ocean Size 2 Tabs
Ocean Size Intro Tabs
Trip Away Tabs
Of Course Ukulele


Song lyrics



↑ Back to top | Tablatures and chords are parodies/interpretations of the original songs. You may use it for private study, scholarship, research or language learning purposes only
© 2014 AZChords.com Contact us | Privacy policy | DMCA | Add/correct tabs | Request tabs | Top 50 tabs