array
(
    
'oceansize' => 'oceansize'
    'janesaddiction' 
=> 'janesaddiction'
)
Ocean Size Bass tabs (ver. 1) by Janes Addiction @ AZ CHORDS.COM
» » »

Ocean Size Bass tabs (ver.1)

Artists:  A B C D E F G H I J K L M N O P Q R S T U V W X Y Z # 

Ocean Size Bass tabs (ver.1)

Janes Addiction
Rating:
0/5 (0 votes)

Hard to play? Try these video lessons and learn fast.
                Band: Jane's Addiction
Bassist: Eric Avery
Tuning: Standard

Verse (main riff) [0:19-0:50]

G|----------------------------------|
D|-----------------7------7---------|
A|7--7--7-10-10-10----10-------7----|
E|--------------------------10---10-|

First guitar solo [0:50-1:11]

G|----------------------------------|----------------------------|
D|-----------------7------7---------|--------5-5-5---------------|
A|7--7--7-10-10-10----10-------7----|7--7--7---------------5-7-5-|
E|--------------------------10---10-|--------------5--3--5-------| x2

Verse [1:11-1:32]

G|----------------------------------|
D|-----------------7------7---------|
A|7--7--7-10-10-10----10-------7----|
E|--------------------------10---10-|

Pre chorus and chorus [1:32-2:00]
                                           
G|----12--9--7--9--9-7h9p7----------------------------------| 
D|------------------------9---------------------------------| 
A|7~~~~~~~~~~~~~~~~~~~~~~~~-7-7-7-7-7-7-7-7-7-7-7-7-7-5-----|
E|------------------------------------------------------7-5-|

G|-----------------------------------------|
D|-----------------------------------------|
A|------------5--5--5-555555-----3/5-7-7-5-|
E|3--3--3--3----------------5--5-----------|

G|---------------------------------------------------------|
D|-----------------7------7-----------------5-5-5----------|
A|7--7--7-10-10-10----10-------7----7--7--7----------------|
E|--------------------------10---10---------------5--3--5--|

Bridge [2:00-2:09]

G|---------------------|
D|-----------------0---|
A|7---10---10-10-0-----|
E|---------------------|

Second guitar solo [2:09-2:30]

G|----------------------------------|----------------------------|
D|-----------------7------7---------|--------5-5-5---------------|
A|7--7--7-10-10-10----10-------7----|7--7--7---------------5-7-5-|
E|--------------------------10---10-|--------------5--3--5-------| x2


Pre chorus and chorus [2:30-2:58]

G|--------6--7--9--8h9-8h9-9---------------------------------|     Those
D|-----------------------------------------------------------|  hammer-on's
A|7~~~~~~~~~~~~~~~~~~~~~~~~~-7-7-7-7-7-7-7-7-7-7-7-7-7-5-----|    are fast
E|-------------------------------------------------------7-5-|
-
G|----------------------------------------|
D|----------------------------------------|
A|------------5--5--5-555555------------5-|
E|3--3--3--3----------------5--5--35555---|

G|---------------------------------------------------------------|
D|-----------------7------7-----------------5-5-5----------------|
A|7--7--7-10-10-10----10-------7----7--7--7----------------5-7-5-|
E|--------------------------10---10---------------5--3--5--------|

Play main riff again till [3:28] + one more riff without last 3 notes.

Bridge [3:33-3:41]

Third guitar solo/outro [3:41+](play it like 2nd solo, but x3)
and end song with 7 on A (let ring).


/  slide up
\  slide down
h  hammer-on
p  pull-off
~  let ring
            
Hard to play? Try these video lessons and learn fast. | Correct




comments powered by Disqus
↑ Back to top | Tablatures and chords are parodies/interpretations of the original songs. You may use it for private study, scholarship, research or language learning purposes only