» » »

Janes Addiction, Summertime Rolls Bass tabs (ver.1)

Artists:  A B C D E F G H I J K L M N O P Q R S T U V W X Y Z # 

Summertime Rolls Bass tabs (ver.1)

Janes Addiction Tabs
Rating:
0/5 (0 votes)
Summertime Rolls lessons Tabs too difficult? Try these video lessons and learn fast
                Jane's Addiction
Nothing's Shocking

NOTATION:
 
 ^ ==> Hold Note


	* MAIN RIFF

G:|---10----10----10----10----11-|---13----13----13----13----13-|
D:|------------------------------|------------------------------|
A:|------------------------------|------------------------------|
E:|-9-----9-----9-----9-----9----|-9-----9-----9-----9-----9----|


G:|---13----13----13----13----11-|-10-10----10----10^-|
D:|------------------------------|--------------------|:
A:|------------------------------|--------------------|:
E:|-0-----0-----0-----0-----0----|-9------9-----9-----|

Repeat during the whole song with some easy-to-catch variations

--------------------------------------------------------------

AMOR Y PAZ
            
Submit corrections

comments powered by Disqus
↑ Back to top | Janes Addiction Bass for Summertime Rolls. Lyrics for acoustic guitar and electric guitar. Tablatures and chords are parodies/interpretations of the original songs. You may use it for private study, scholarship, research or language learning purposes only