» » »

Janes Addiction, Ocean Size Tabs (ver.3)

Artists:  A B C D E F G H I J K L M N O P Q R S T U V W X Y Z # 

Ocean Size Tabs (ver.3)

Janes Addiction Tabs
 Rating:
4.3/5 (6 votes)
Ocean Size lessons Tabs too difficult? Try these video lessons and learn fast
                (Intro)
  This is the intro of Jane's Addiction's "Ocean Size"
  I only wish I could transcribe the whole song for you.
  Seriously, I'm begging anyone who can play all the 
  solos and everything in this song to post a complete 
  tab.  I'm willing to trade my first born for it.

  Intro (fingerpicking)
E |---------------------0-------------------||
B |------------0----------------------------||
G |------4--------4--------4---------4------||
D |------------------5--------5-------------||
A |---5-----5---------------------5-----5---||
E |-----------------------------------------||

E |---------------------0-------------------||
B |------------0----------------------------||
G |------3--------3--------3---------3------||
D |---------------------------4-------------||
A |---4-----4--------4------------4-----4---||
E |-----------------------------------------||

E |---------------------0-------------------||
B |------------0----------------------------||
G |------2--------2--------2---------2------||
D |------------------3--------3-------------||
A |---3-----3---------------------3-----3---||
E |-----------------------------------------||

E |----------------------0---0---0----------||
B |------------0---------0---0---0----------||
G |------1--------1------1---2---3----------||
D |------------------2---2---3---4----------||
A |---2-----2------------2---3---4----------||
E |-----------------------------------------||

E |---------------------0-------------------||
B |------------0----------------------------||
G |------4--------4--------4---------4------||
D |------------------5--------5-------------||
A |---5-----5---------------------5-----5---||
E |-----------------------------------------||

E |---------------------0-------------------||
B |------------0----------------------------||
G |------3--------3--------3---------3------||
D |---------------------------4-------------||
A |---4-----4--------4------------4-----4---||
E |-----------------------------------------||

E |---------------------0--------------------0----||
B |------------0-----------------------------0----||
G |------2--------2--------2---------2-------2----||
D |------------------3--------3--------------3----||
A |---3-----3---------------------3-----3----3----||
E |-----------------------------------------------||

This sounds really good with chorus, and even better with a twelve string acoustic.  Have fun!
            
Submit corrections

comments powered by Disqus
↑ Back to top | Janes Addiction Tabs for Ocean Size. Lyrics for acoustic guitar and electric guitar. Tablatures and chords are parodies/interpretations of the original songs. You may use it for private study, scholarship, research or language learning purposes only