>
 >
Just Because 2

Just Because 2 Guitar Tabs

Janes Addiction - Just Because 2 chords, tabs, tablatures, lyrics

Guitar lessons | Add/correct | Request | Top 50 tabs Artists:  A B C D E F G H I J K L M N O P Q R S T U V W X Y Z 0-9

Just Because 2 Guitar Tabs – Janes Addiction

CD, Sheet music, Poster

Do you like Just Because 2? Share with your friends now
Bass TabsBass Tabs v2TabsTabs v2Tabs v3Tabs v4Tabs v5Tabs v6
-------------------------------------------------------------------------------
                             Just Because - Jane's Addiction
-------------------------------------------------------------------------------


Tuning: Standard

e|-6--6/8\6--6--6/8\6--4--6/8\6--4--6/8\6------------------------------------|
B|-x---------x---------x---------x---------13----15--------------------------|
G|-x---------x---------x---------x---------13----15--------------------------|
D|-8---------8---------6---------6---------13----15--------------------------|
A|-x---------x---------x---------x---------11----13--------------------------|
E|-6---------6---------4---------4-------------------------------------------|
 Chord pattern is on you, but very easy to figure out
e|----------------------------------------------|----------------------------|
B|----------------------------13----------------|--------13----15------------|
G|--7-7-7-7-7-7-7-7-7-7--7----13----10----9-----|--13----13----15------------|
D|--8-6-8-6-8-6-8-6-8-10-8----13----11----10----|--13----13----15------------|
A|--8-8-8-8-8-8-8-8-8-8--8----11----11----10----|--11----11----13------------|
E|--6-6-6-6-6-6-6-6-6-6--6----------9-----8-----|----------------------------|
 Verse 1                                         2nd Part
e|--6--6/8\6--6--6/8\6--4--6/8\6--4--6/8\6--|--------------------------------|
B|--x---------x---------x---------x---------|--------------------------------|
G|--x---------x---------x---------x---------|--10-10-8---13-12-7-------------|
D|--8---------8---------6---------6---------|--10-10-8---x--x--8-------------|
A|--8---------8---------6---------6---------|--8--8--6---11-10-8-------------|
E|--6---------6---------4---------4---------|------------------6-------------|
 Chorus                                      2nd Part
e|---------------------------------------------------------------------------|
B|----------------------------13--------13-------13-------15-----------------|
G|--7-7-7-7-7-7-7-7-7---------13-13--------13----13-13----15-15--------------|
D|--8-6-8-6-8-6-8-6-8-8/10\8--13----13--------13----13-13----15--------------|
A|--8-8-8-8-8-8-8-8-8---------11-----------------------11--------------------|
E|--6-6-6-6-6-6-6-6-6--------------------------------------------------------|
 Verse 2 then later repeat Verse 1
e|---------------------------------|-----------------------------------------|
B|-----------13-13/15-15-13/15-15--|-13-15/17-17-15/17-17-15/17--------------|
G|--5---9----13-13/15-15-13/15-15--|-13-15/17-17-15/17-17-15/17--------------|
D|--6---10---13-13/15-15-13/15-15--|-13-15/17-17-15/17-17-15/17--------------|
A|--6---10---11-11/13-13-11/13-13--|-11-13/15-15-13/15-15-13/15--------------|
E|--4---8--------------------------|-----------------------------------------|
 Chords over solo                   2nd time
e|---------------------------------------------------------------------------|
B|-----------13--------15--------13------------------------------------------|
G|--5---9----13----14--15----12--13------------------------------------------|
D|--6---10---13----15--15----13--13------------------------------------------|
A|--6---10---11----15--13----13--11------------------------------------------|
E|--4---8----------13--------11----------------------------------------------|
 Last part of chords over solo, repeat the last part twice
e|--------------------------------12~-15~-------------------14---------------|
B|--14~-13~-16~-15~---14~-13~-16~-------------------13~-----17b19r17---------|
G|------------------------------------------15~-13~-----13~-----------15~----|
D|---------------------------------------------------------------------------|
A|---------------------------------------------------------------------------|
E|---------------------------------------------------------------------------|
 Solo 
e|-----13------------14-----------13-----------------------------------------|
B|-----16b18r16------17b19r17-----16b18r16-----------------------------------|
G|-13~----------13~-----------15~----------14~-------------------------------|
D|---------------------------------------------------------------------------|
A|---------------------------------------------------------------------------|
E|---------------------------------------------------------------------------|

e|------------------------------------|--------------------------------------|
B|------------------------------------|----------------13---15--15--16p15-15-|
G|--7---------13---------10~------10~-|--7---------13--13---15--15--15----15-|
D|--8---------x-----9/11-----9/10-----|--8---------13--13---15--15--15----15-|
A|--8----6/11-11----------------------|--8----6/11-11--11---13--13--13----13-|
E|--6---------------------------------|--6-----------------------------------|
 Verse 3
e|------------------------------------------------------13-------------------|
B|------------------------------------------------------13-------------------|
G|-14~-13~-11~-13b14r13~--------9~--------------------------15b17r15-15b17r15|
D|-----------------------11~-11~--11~--8--11\10~-8~10-6~---------------------|
A|---------------------------------------------------------------------------|
E|---------------------------------------------------------------------------|

e|---------------------------------------------------------------------------|
B|---------------------------------------------------------------------------|
G|-15b17r15-15b17r15-15b17r15--10b11r10-10b11r10-10p8-----------10b11r10-----|
D|-----------------------------------------------------10p8-10~----------8---|
A|---------------------------------------------------------------------------|
E|---------------------------------------------------------------------------|

e|---------------------------------------------------------------------------|
B|---------------------------------------------------------------------------|
G|-8b10r8--------------------------------------------------------------------|
D|--------6~-----------------------------------------------------------------|
A|---------------------------------------------------------------------------|
E|---------------------------------------------------------------------------|
 Last Solo       Then just repeat the last two bends a couple of times.



| /  slide up
| \  slide down
| h  hammer-on
| p  pull-off
| ~  vibrato
| +  harmonic
| x  Mute note

===============================================================================





Comments


Popular Janes Addiction tabs & chords
Just Because 1 Bass Tabs
Ted Just Admit It Bass Tabs
Underground Bass Tabs
City Song Chords
Just Because 4 Tabs
Ocean Size Tabs
Pigs In Zen Tabs
Stop Tabs
Strays Tabs
Superhero 1 Tabs


Song lyrics



↑ Back to top | Tablatures and chords are parodies/interpretations of the original songs. You may use it for private study, scholarship, research or language learning purposes only
© 2014 AZChords.com Contact us | Privacy policy | DMCA | Add/correct tabs | Request tabs | Top 50 tabs