» » »

Just Because Tabs (ver.2)

Artists:  A B C D E F G H I J K L M N O P Q R S T U V W X Y Z # 

Just Because Tabs (ver.2)

Janes Addiction
Rating:
4/5 (23 votes)
Tabs too difficult? Try these video lessons and learn fast.
                Artist-Janes Addiction
Title-Just Because
Album-Strays(I think)

hey,this is a good song...rate this tab or if u have
any corection click the corrections box above and u
can put ur comments in there too
key-----------
p=pull off   |
h=hammer on  |
v=vibrato    | 
~=hold       |
/=slide      |
x-dont play  |
-------------|
Intro
guitar 1   
e----------------------8p6-
b--------------------------
g--------------------------
d-8-8-8-8-8-8-8-8-8-8------  x2
a--------------------------
E--------------------------

e-----6-6-----6-6---8p6-
b-----------------------
g-----------------------
d-6-6-----6-6-----6----- x 2
a-----------------------
E-----------------------

e----------------------8p6-
b--------------------------
g--------------------------
d-8-8-8-8-8-8-8-8-8-8------  x2
a--------------------------
E--------------------------

e-----6-6-----6-6---8p6-
b-----------------------
g-----------------------
d-6-6-----6-6-----6----- x 2
a-----------------------
E-----------------------

guitar 2- intro and verse
intro-do a slide back then it does this
e-------------------
b-------------------
g------------------- dont stop playing this
d-------------------
a-8-6/8-6/8-6/8-6/8-
E-6-4/6-4/6-4/6-4/6-

right before the verse guitar 1 plays
e----------------------------------
b----------------------------------
g-17-17-17-17-17-19-19-19-19-19-19-
d--x--x--x--x-x--x--x--x--x--x--x--
a-15-15-15-15-15-17-17-17-17-17-17-
E----------------------------------

verse-guitar 2 same as intro play without stopping
all the way thru
guitar 1(0:24)
e------------------------------------
b------------------------------------
g-13-13-13-13-10-10-1010-10-10-10-10-
d--x--x-x--x--x-x-x-x-10-10-10-10-10-
a-11-11-11-11-8-8-8-8--8-8--8--8---8-
E------------------------------------

guitar 1(0:34)
e------------------------------------
b------------------------------------
g-13-13-13-13-17-17-17-17-19-19-19-19-
d--x--x-x--x--x-x-x-x---x--x-x--x---x-
a-11-11-11-11-15-15-15-15-17-17-17-17-
E-------------------------------------

guitar 1(0:43)
e------------------------------------
b------------------------------------
g-13-13-13-13-10-10-1010-10-10-10-10-
d--x--x-x--x--x-x-x-x-10-10-10-10-10-
a-11-11-11-11-8-8-8-8--8-8--8--8---8-
E------------------------------------

guitar 1(0:53)
e------------------------------------
b------------------------------------
g-13-13-13-13-17-17-17-17-19-19-19-19-
d--x--x-x--x--x-x-x-x---x--x-x--x---x-
a-11-11-11-11-15-15-15-15-17-17-17-17-
E-------------------------------------

Chorus 1 
guitar 1
e----------------------8p6-
b--------------------------
g--------------------------
d-8-8-8-8-8-8-8-8-8-8------  x2
a--------------------------
E--------------------------

e-----6-6-----6-6---8p6-
b-----------------------
g-----------------------
d-6-6-----6-6-----6----- x 2
a-----------------------
E-----------------------

e----------------------8p6-
b--------------------------
g--------------------------
d-8-8-8-8-8-8-8-8-8-8------  x2
a--------------------------
E--------------------------

e-----6-6-----6-6---8p6-
b-----------------------
g-----------------------
d-6-6-----6-6-----6----- x 2
a-----------------------
E-----------------------

guitar 2
e------------------------
b------------------------
g------------------------
d------------------------
a-8-8---8-8---6-6---6-6-- x2
E-6-6---6-6---4-4---4-4--

"Just Because...""Just Because..."
e-----------------------------
b-----------------------------
g-10--10-8----------13-12-10--
d-x---x--x----------x---x-x---
a-8---8--6----------11-10-8---
E-----------------------------

guitar 1 preverse(this part played as the same 
sound guitar 2 is playing the verse riff
e-------------------------------
b-9h11-11-11v-11-11-9h11-11-11v-
g-------------------------------
d-------------------------------
a-------------------------------
E-------------------------------

e-8-----8---11---10----
b---9-4---9----9----11-
g----------------------
d----------------------
a----------------------
E----------------------

verse - guitar 2 plays the same riff as verse 1
guitar 1(1:35)
e------------------------------------
b------------------------------------
g-13-13-13-13-10-10-1010-10-10-10-10-
d--x--x-x--x--x-x-x-x-10-10-10-10-10-
a-11-11-11-11-8-8-8-8--8-8--8--8---8-
E------------------------------------

guitar 1(1:45)
e------------------------------------
b------------------------------------
g-13-13-13-13-17-17-17-17-19-19-19-19-
d--x--x-x--x--x-x-x-x---x--x-x--x---x-
a-11-11-11-11-15-15-15-15-17-17-17-17-
E-------------------------------------

Chorus 2
guitar 1
e----------------------8p6-
b--------------------------
g--------------------------
d-8-8-8-8-8-8-8-8-8-8------  x2
a--------------------------
E--------------------------

e-----6-6-----6-6---8p6-
b-----------------------
g-----------------------
d-6-6-----6-6-----6----- x 2
a-----------------------
E-----------------------

e----------------------8p6-
b--------------------------
g--------------------------
d-8-8-8-8-8-8-8-8-8-8------  x2
a--------------------------
E--------------------------

e-----6-6-----6-6---8p6-
b-----------------------
g-----------------------
d-6-6-----6-6-----6----- x 2
a-----------------------
E-----------------------

guitar 1
e------------------------
b------------------------
g------------------------
d------------------------
a-8-8---8-8---6-6---6-6-- x2
E-6-6---6-6---4-4---4-4--

"Just Because...""Just Because..."
e-----------------------------
b-----------------------------
g-10--10-8----------13-12-10--
d-x---x--x----------x---x-x---
a-8---8--6----------11-10-8---
E-----------------------------

Breakdown
guitar 2-slide then
e---------------
b---------------
g---------------
d---------------
a-6-8-6-8-8-8-8-
E-4-6-4-6-6-6-6-

e---------------------------
b---------------------------
g---------------------------
d---------------------------
a-6-8-6-6/10-8/10-8/10-8/10-
E-4-6-4-6/8--6/8--6/8--6/8--

e---------------------------
b---------------------------
g---------------------------
d---------------------------
a-6-8-6-11-8-10-7-11-8-10-7~
E-4-6-4-9--6-8--5-9-6--8--5~

guitar 1
e----------------------11-10-13-10-13-
b-14-14-14-14-13-13-13----------------
g-------------------------------------
d-------------------------------------
a-------------------------------------
E-------------------------------------

e----------------------11-12-12-12-12-15-15-15-15-
b-14-14-14-14-13-13-13----------------------------
g-------------------------------------------------
d-------------------------------------------------
a-------------------------------------------------
E-------------------------------------------------

e---------------------------------------
b-11-11-9-11-14-11~-13-10~-14-11-13-10v-
g---------------------------------------
d---------------------------------------
a---------------------------------------
E---------------------------------------

verse 3-guitar 2 plays same riff as verse 1 and 2
guitar 1(2:42)
e------------------------------------
b------------------------------------
g-13-13-13-13-10-10-1010-10-10-10-10-
d--x--x-x--x--x-x-x-x-10-10-10-10-10-
a-11-11-11-11-8-8-8-8--8-8--8--8---8-
E------------------------------------

guitar 1(2:52)
e-------------------------------------------
b-------------------------------------------
g-13-13-13-13-17-17-17-17-19-19-19-20-19----
d--x--x-x--x--x-x-x-x---x--x-x-----------20-
a-11-11-11-11-15-15-15-15-17-17-------------
E-------------------------------------------

Chorus 3
guitar 1
e----------------------8p6-
b--------------------------
g--------------------------
d-8-8-8-8-8-8-8-8-8-8------  x2
a--------------------------
E--------------------------

e-----6-6-----6-6---8p6-
b-----------------------
g-----------------------
d-6-6-----6-6-----6----- x 2
a-----------------------
E-----------------------

e----------------------8p6-
b--------------------------
g--------------------------
d-8-8-8-8-8-8-8-8-8-8------  x2
a--------------------------
E--------------------------

e-----6-6-----6-6---8p6-
b-----------------------
g-----------------------
d-6-6-----6-6-----6----- x 2
a-----------------------
E-----------------------

guitar 2
e------------------------
b------------------------
g------------------------
d------------------------
a-8-8---8-8---6-6---6-6-- x2
E-6-6---6-6---4-4---4-4--

"Just Because...""Just Because..."
e-----------------------------
b-----------------------------
g-10--10-8----------13-12-10--
d-x---x--x----------x---x-x---
a-8---8--6----------11-10-8---
E-----------------------------

Ending
guitar 1(solo)
e----------------------------------------
b-11-9-8-9-----9-------------------------
g----------6-3---6-3-6-5-5-5-5-3-3-3-3-1-
d----------------------------------------
a----------------------------------------
E----------------------------------------

e----------------------------------------
b-12b-12b-12b-12b-12b-12b----------------
g-------------------------9b-9b-10-8-6-3-
d----------------------------------------
a----------------------------------------
E----------------------------------------

e-----------------------------
b------7-4------6----7-4-6----
g-5b-3-----4b-2---2v-6-3-5-2v-
d-----------------------------
a-----------------------------
E-----------------------------

guitar 2-slide then
e-----------------------------------------------
b------------------------------------------------
g-----------------------------------------------
d-----------------------------------------------
a-6-11-11-11-4/8/6/8-6/8-6/8-6-11-11-11-6-11-11-
E-4-9--9--9--4/6-4/6-4/6-4/6-4-9--9--9--4-9--9--

e-------------------------------------
b-------------------------------------
g-------------------------------------
d-------------------------------------
a-8/10-8/10/8/10-8/10-8/10-6-11-11-11-
E-6/8--6/8--6/8--6/8--6/8--4-9--9--9--

e-----------------------
b-----------------------
g-----------------------
d-----------------------
a-11-8-10-7~-11-8-10-3~~
E-9--6-8--5~-9--6-8--1~~

Well,that's it..this tab took a long time so RATE IT
and go to the correction box and give me corrections
or comments,thanks
            
Tabs too difficult? Try these video lessons and learn fast.


comments powered by Disqus
↑ Back to top | Tablatures and chords are parodies/interpretations of the original songs. You may use it for private study, scholarship, research or language learning purposes only