» » »

Janes Addiction, Just Because Bass tabs (ver.1)

Artists:  A B C D E F G H I J K L M N O P Q R S T U V W X Y Z # 

Just Because Bass tabs (ver.1)

Janes Addiction Tabs
 Rating:
4/5 (4 votes)
Just Because lessons Tabs too difficult? Try these video lessons and learn fast
1
                Tuning: 1/2 Step Down (Eb Ab Db Gb)


Guitar Intro (4 measures)

Come in w/ drums - Verse 1
Gb|-------------------------------------------------------------------||
Db|-------------------------------------------------------------------||
Ab|-2-2-02-2-02-02-2-2-02-2-02---02-----------------------------------|| 
Eb|------------2----------------2-------------------------------------||


Verse 2
Gb|-------------------------------------------------------------------||
Db|-------------------------------------------------------------------||
Ab|-2-22-02-22-02-02-2-22-02-22-02--02--------------------------------||
Eb|--------------2-----------------2----------------------------------||


Verse 3
Gb|---------------------------------||
Db|---------------------------------||
Ab|-2-2-02-2-02-2-------------------||
Eb|---------------------------------||


Chorus 1
Gb|---------------------------------||
Db|------------7/9------------------||
Ab|-9-9-7---7/9------7-5------------||
Eb|----------------------7----------||


Chorus 2
Gb|----------------------9/7--------||
Db|-------------------7/9---7/9-----||
Ab|-9-9-7------7---7----------------||
Eb|--------------7-------------7----||


Breakdown
Gb|-----------------2/4-44-42/4-44-4-2/4-44---------------------------||
Db|-------------2/4---------------------------------------------------||
Ab|-2-2-02-2-2/4------------------------------------------------------||
Eb|----2--------------------------------------------------------------||


cont'd
Gb|-------------------------------------------------------------------||
Db|-------------2/4-4/11-11-11-11-9/11-11-11-11-9/11-11-11------------||
Ab|-2-2-02-2-2/4-------------------------------------------9----------||
Eb|----2--------------------------------------------------------------||


cont'd
Gb|-------------------------------------------------------------------||
Db|-------------2/4/17--14----16-----------17--14--16-----------------||
Ab|-2-2-02-2-2/4-----------------13-------------------13--------------||
Eb|----2-----------------------------15-------------------------------||


Chorus 3
Gb|---------------------------------------9/7-------------------------||
Db|----------------------7/9-----------7/9---7/9----------------------||
Ab|-9-9-7-----9-9-7---7/9------7---7----------------------------------||
Eb|------------------------------7---------------7--------------------||


Order of Song:

Verse 1   x2
Verse 2   x8
Verse 1   x3
Verse 3
Chorus 1
Verse 1   x2
Verse 2   x4
Verse 1   x3
Verse 3 
Chorus 2
Breakdown
Verse 2   x4
Verse 1   x3
Verse 3 
Chorus 3
Breakdown (also Outro)
            
Submit corrections

comments powered by Disqus
↑ Back to top | Janes Addiction Bass for Just Because. Lyrics for acoustic guitar and electric guitar. 1 Tablatures and chords are parodies/interpretations of the original songs. You may use it for private study, scholarship, research or language learning purposes only