>
 >
Just Because 1

Just Because 1 Bass Tabs

Janes Addiction - Just Because 1 chords, tabs, tablatures, lyrics

Guitar lessons | Add/correct | Request | Top 50 tabs Artists:  A B C D E F G H I J K L M N O P Q R S T U V W X Y Z 0-9

Just Because 1 Bass Tabs – Janes Addiction

CD, Sheet music, Poster

Do you like Just Because 1? Share with your friends now
Bass TabsBass Tabs v2TabsTabs v2Tabs v3Tabs v4Tabs v5Tabs v6
Intro
G|-----------------------|
D|-----------------------|
A|-----------------------| X4
D|-8--6-8-6-8--8868--367-|

Verse 1
           X15
G|-----------------------|-------------------|
D|-----------------------|-------88888886----|
A|-----------------------|---------------86\-|
D|-8--6-8-6-8--8868--367-|-888886------------|

Chorus 1
            X6
G|-----------------------|------------------------------------8------------|
D|-----------------------|-------------------------------6/811-------------|
A|-----------------------|--------------------1/8--8--6-----------6--4-----|
D|-8--6-8-6-8--8868--367-|-8--6-8-6-8--8868-----------------------------8--|

Verse 2
            X11
G|-----------------------|------------------|
D|-----------------------|------------------|
A|-----------------------|-11----11----1----|
D|-8--6-8-6-8--8868--367-|---1111--1111-111-|
’11’ in the verse 2 part is not an eleven (11), but one (1) played fast.

Chorus 2
            X6
G|-----------------------|------------------------------------------------8-----|
D|-----------------------|-------------------------------------------6/811------|
A|-----------------------|--------------------1/8--8--6--------4----------------|
D|-8--6-8-6-8--8868--367-|-8--6-8-6-8--8868----------------/8-----1----------8--|

Interlude
G|-------------------------------------------------------------------------------------|
D|---------------6--6-6h8888--6h8888-----------------6--6-8h1010108h1010108h10101086---|
A|--------4---4/8----8------------------------4---4/8----8--------------------------86-|
D|-6---6h8-----------------------------6---6h8-----------------------------------------|

G|------------------6-------------------------------|
D|---------------6-----8----10----------------------|
A|--------4---4/8---------------12--8\--4--1--3-----|
D|-6---6h8---------------------------------------3--|

Verse 3
            X7
G|-----------------------|-------------------|
D|-----------------------|-------------86----|
A|-----------------------|---------------86\-|
D|-8--6-8-6-8--8868--367-|-888888888888------|

Chorus 3
            X6
G|-----------------------|----------------------------------------------678--------------------|
D|-----------------------|-------------------------------------------678-----------------------|
A|-----------------------|--------------------1/8--8--6----/8--8--6---------8---------------1--|
D|-8--6-8-6-8--8868--367-|-8--6-8-6-8--8868------------------------------------3--1---3-1-1----|

Outro
G|------------------------------------------------------------------------------------------|
D|--------------------6--6-6h8888--6h8888-----------------6--6-8h1010108h1010108h10101086---|
A|-------------4---4/8----8------------------------4---4/8----8--------------------------86-|
D|-/18\-6---6h8-----------------------------6---6h8-----------------------------------------|

G|------------------6-------------------------------|
D|---------------6-----8----10----------------------|
A|--------4---4/8---------------12--8\--4--1--3-----|
D|-6---6h8---------------------------------------3--|

That’s all and please rates this tab. This is really a great song by Jane’s Addiction. I really really like it.





Comments


Popular Janes Addiction tabs & chords
Obvious 1 Bass Tabs
Pigs In Zen 1 Bass Tabs
So What! Bass Tabs
Ted, Just Admit It... Bass Tabs
Three Days Bass Tabs
Idiot's Rule Tabs
Jane Says 2 Tabs
Pigs In Zen Tabs
Then She Did Tabs
Ocean Size Ukulele


Song lyrics



↑ Back to top | Tablatures and chords are parodies/interpretations of the original songs. You may use it for private study, scholarship, research or language learning purposes only
© 2014 AZChords.com Contact us | Privacy policy | DMCA | Add/correct tabs | Request tabs | Top 50 tabs