» » »

Virtual Insanity Bass tabs (ver.3)

Artists:  A B C D E F G H I J K L M N O P Q R S T U V W X Y Z # 

Virtual Insanity Bass tabs (ver.3)

Jamiroquai
Rating:
0/5 (0 votes)

Hard to play? Try these video lessons and learn fast.
                "-------------------------------------------------------------------------------
			     Virtual Insanity - Jamiroquai
-------------------------------------------------------------------------------

Tuning: Standard (EADG)

Well, this is one of the best songs by jamiroquai, with a great bass line!
The bass comes up at the first chorus (0:48), for the chorus and the second part of the 
you need to know how to slap and pop, in the verse use your fingers.
You can also add some death notes as you play, just to get it a little more funky.
NOTE: This tab is for virtual insanity single version, not the album version which has 
things... maybe I tab it later
NOTE 2: This is just the basic bass line, if you hear closely the song, it has some 
things that stu adds by the song, so be creative and add something!

Chorus
G|---4----4h3------8-------------------|
D|----------------------4---5----------|
A|-2----2----4---6-----------------1~~-|
E|--------------------2---3---4-4------|
   S P  S P  S   S P  S P S P S S  S

Verse
G|---8-------------------6-------------------5------4------3-----6-----8-|
D|--------4---5---6-----------2---3---4----------------------------------|
A|-6-----------------2/4-----------------2/3----0-2----0-1---0-4---0-6---|
E|------2---3---4-----------0---1---2------------------------------------|

Bridge pt1 (play it along with the piano)
G|----------------------------------------|
D|----------------------------------------|
A|-6-----4-----3--2--1--x4-x5-x6-----4----|
E|----4-----2---------------------4-----2-|

Bridge pt2
G|-13p11----11-10h11p10------|--11-------11--------|
D|-------13-------------13\--|-----13-13----13p11\-|
A|---------------------------|---------------------|
E|---------------------------|---------------------|
   P     S  P  P        S       p  S  S  P  S


Song parts in order:
0:00 - Intro and verse (Don't play)
0:48 - Chorus x4
1:09 - Verse x4
1:47 - Chorus x8
2:28 - Bridge pt1 (Optional) x1
2:43 - Bridge pt2 x1
2:47 - Chorus x8
3:28 - Outro (Don't Play)


| /  slide up
| \  slide down
| h  hammer-on
| p  pull-off
| ~  vibrato
| +  harmonic
| x  Mute note
===============================================================================
"            
Hard to play? Try these video lessons and learn fast. | Correct




comments powered by Disqus
↑ Back to top | Tablatures and chords are parodies/interpretations of the original songs. You may use it for private study, scholarship, research or language learning purposes only