» » »

Jamiroquai, Too Young Too Die Bass tabs (ver.1)

Artists:  A B C D E F G H I J K L M N O P Q R S T U V W X Y Z # 

Too Young Too Die Bass tabs (ver.1)

Jamiroquai Tabs
Rating:
0/5 (0 votes)
Too Young Too Die lessons Tabs too difficult? Try these video lessons and learn fast
                
These are the basic notes for this song. Enjoy


 Verse1
|-----------------------------------|------------------------------------|
|-----------------------------------|------------------------------------|
|-5-------3-------------5-----------|----5---3-------5-------------5p4---|
|-----------------3h5---------------|----------3h5-----------------------|

|-----------------------------------|------------------------------------|
|-----------------------------------|----------------5-------------------|
|-----------------3h5---5-----------|----------3h5-----------------5p4---|
|-3-------5---------------------3---|----5-------------------------------|

|---------5-----5-------------------|----------3-------2-----------------|
|-----5-------------5---------------|------3-------------2---------------|
|-3---------------------3-----2-----|--1---------------------0-----3-----|
|-----------------------------------|------------------------------------|


 Chorus
|-----7-----8----------------------8---|
|---7-----8-----6---8---6/8-10-8-------|
|-5-----6-----8---8---8----------6-----|
|--------------------------------------|

|-----7-----8--------------------------|
|---7-----8---8-8-8-8-----8---10-------|
|-5-----6-------------8-----8----10----|
|-----------------------6-----------8--|

 Bridge
|-----7--8----------|------------------|
|------------8------|-8----------------|
|-5-----------6-----|------------10----|
|-------------------|--6-6-6--8---8----|
            

comments powered by Disqus
↑ Back to top | Jamiroquai Bass for Too Young Too Die. Lyrics for acoustic guitar and electric guitar. Tablatures and chords are parodies/interpretations of the original songs. You may use it for private study, scholarship, research or language learning purposes only