>
 >
Stillness In Time

Stillness In Time Guitar Tabs

Jamiroquai - Stillness In Time chords, tabs, tablatures, lyrics

Guitar lessons | Add/correct | Request | Top 50 tabs Artists:  A B C D E F G H I J K L M N O P Q R S T U V W X Y Z 0-9

Stillness In Time Guitar Tabs – Jamiroquai

CD, Sheet music, Poster

Do you like Stillness In Time? Share with your friends now
Bass TabsChordsTabsUkulele

************************************************************************
Verse Chords

          Cmin7                F9	      BbMaj7
|---------|  |---------|  |---------|  |---------|  
|----8----|  |----6----|  |----8----|  |----6----|  
|----8----|  |----3----|  |----8----|  |----7----|
|----8----|or|----5----|  |----7----|  |----7----|  
|---------|  |----3----|  |----8----|  |---------|
|----8----|  |---------|  |---------|  |----6----|

			 Gmin7		       Bb7         AbMaj7
|---------|  |---------|  |---------|  |---------|  |---------|
|----3----|  |----11---|  |----11---|  |----6----|  |----4----|
|----3----|  |----10---|  |----10---|  |----7----|  |----5----|
|----3----|or|----8----|or|----12---|  |----6----|  |----5----|
|---------|  |----10---|  |----10---|  |---------|  |---------|
|----3----|  |---------|  |---------|  |----6----|  |----4----|

   DbMaj7	          Gbmaj7                    CbMaj7
|---------|  |---------|  |---------|  |---------|  |---------|
|----6----|  |----2----|  |----11---|  |----4----|  |----7----|
|----5----|  |----3----|  |----10---|  |----3----|  |----8----|
|----6----|  |----3----|or|----11---|  |----4----|or|----8----|
|----4----|  |---------|  |----9----|  |----2----|  |---------|
|---------|  |----2----|  |---------|  |---------|  |----7----|	    

Pre-chorus Chords

   BbMaj7		  Bb7	   EbMaj7
|---------|  |---------|  |---------|
|----6----|  |----6----|  |----8----|
|----7----|  |----7----|  |----7----|
|----7----|  |----6----|  |----8----|
|---------|  |---------|  |----6----|
|----6----|  |----6----|  |---------|




Chorus Chords

     G7                Cmin7		      DbMaj7
|---------|  |---------|  |---------|  |---------|  |---------|
|----3----|  |----4----|  |----4----|  |----6----|  |----6----|
|----4----|  |----3----|  |----3----|  |----5----|  |----6----|
|----3----|  |----5----|or|----1----|  |----6----|  |----4----|
|---------|  |----3----|  |----3----|  |----4----|  |----6----|
|----3----|  |---------|  |---------|  |---------|  |---------|
************************************************************************

Verse

          Cmin7        F9            Cmin9    F9    BbMaj7
There’s a stillness in time, which I cannot define. Does 
                                             Gmin7
your heart bleed like mine? Oh does your heart yeah. For a 
Cmin7        F9           Cmin7           F9          BbMaj7
place we can go where the troubles of our time are far away. 
Bb7             EbMaj7    AbMaj7         DbMaj7            
Hey they are so far away.       And I had all my life in 
            AbMaj7         DbMaj7
front of me.        Now my darkest days are trouble free. 
GbMaj7            BMaj7                         GbMaj7 BMaj7   
     There are so many wondrous things for you to see.

Pre-Chorus

BbMaj7        Bb7                  EbMaj7 
       If you find that somethin’s goin wrong. 
BbMaj7      Bb7                  EbMaj7 
      Look around at what you’re runnin from. 
BbMaj7         Bb7             EbMaj7 
       You can wait a thousand years in line 
BbMaj7                           Bb7    EbMaj7 
        for that stillness in time.

Chorus

G7    Cmin7    DbMaj7  Emin9        G7                   
      Oh yeah. I found love in that way. 
        Cmin7     DbMaj7  Ebmin9
And I’m never sad and I’m always glad. 
G7 Cmin7 DbMaj7       Ebmin9
         Anything you give me today, 
G7 Cmin7  DbMaj7           Ebmin9   
      oh, I’ll be thankful for. 
G7 Cmin7 DbMaj7         Ebmin9     G7
         People find it hard to be strong. 
Cmin7                  DbMaj7               Ebmin9
‘Cause they don’t know where they’re coming from. 
G7 Cmin7           DbMaj7         Ebmin9      G7
         There was nothin left to do but hang on. 
Cmin7                       DbMaj7 Ebmin9
  For that stillness in time.





Comments


Popular Jamiroquai tabs & chords
Emergency On Planet Earth 1 Bass Tabs
Shes A Fast Persuader Bass Tabs
Space Cowboy 2 Bass Tabs
Starchild Bass Tabs
Virtual Insanity 2 Bass Tabs
Where Do We Go From Here? Bass Tabs
Half The Man Tabs
Manifest Destiny Tabs
Virtual Insanity 1 Tabs
Blue Skies Ukulele


Song lyrics



↑ Back to top | Tablatures and chords are parodies/interpretations of the original songs. You may use it for private study, scholarship, research or language learning purposes only
© 2014 AZChords.com Contact us | Privacy policy | DMCA | Add/correct tabs | Request tabs | Top 50 tabs