>
 >
Seven Days In Sunny June

Seven Days In Sunny June Guitar Tabs

Jamiroquai - Seven Days In Sunny June chords, tabs, tablatures, lyrics

Guitar lessons | Add/correct | Request | Top 50 tabs Artists:  A B C D E F G H I J K L M N O P Q R S T U V W X Y Z 0-9

Seven Days In Sunny June Guitar Tabs – Jamiroquai

CD, Sheet music, Poster

Do you like Seven Days In Sunny June? Share with your friends now
ChordsChords v2Chords v3TabsUkulele
The pebbles you've arranged 
In the sand, they're strange 
They speak to me like constellations 
As we lie here 
There's a magic I can hold 
Your smile of honey gold 
And that you never seem to be in short supply of 

[Chorus:] 
Oooh, so baby let's get it on 
Drinking wine and killing time 
Sitting in the summer sun 
You know I've wanted you so long 
Why do (you) have to 
Drop that bomb on me? 

Lazy days, crazy dolls 
You said we've been friends too long 

Seven days in sunny June 
Were long enough to bloom 
The flowers on the summer dress you wore in spring 
The way we laughed as one 
And then you dropped the bomb 
That I've known you too long 
For us to have a thing 

[Chorus x2] 

Could it be this? 
The stories in your eyes 
Tell the silent wings 
You'll fly away on 

Seven days in sunny June 
Were long enough to bloom 
The flowers on the sunbeam dress you wore in spring 
Yeah, yeah, the way we laughed as one 
Why did you drop the bomb on me?                         

[Chorus] 

Could it be that? 
The honeysuckle blessings you seem to show me 
Could it be that? 
For seven days in June I wasn't lonely 
Could it be that? 
You never gave me time to say I love you           
Could it be that? 
I know you don't believe me but it's so true 

Don't walk away from me, girl                              
I read the sories in your eyes                    
Don't you walk away from me                  
I read the sories in your eyes
And you've been telling me 
We've been friends for too long, yeah 
I could have loved you
I could have loved you
Why do you want to drop the bomb?
                       




                                     
  
e|------- ------- ------- -------|------- ------- ------- -------|
B|-------------------------------|-------------------------------|
G|-------------------------------|----------------------------x-x|
D|-------------------------------|----------------------------x-x|
A|-------------------------------|----------------------------x-x|
E|-------------------------------|-------------------------------|




  BM          F#m                 Bm          F#m
e|2-----2 ----2-- --2-2-- 2------|2-----2 ----2-- --2-2-- 2------|
B|3-----3-----2-----2-2---2------|3-----3-----2-----2-2---2------|
G|4-----4-x-x-2-----2-2---2---x-x|4-----4-x-x-2-----2-2---2---x-x|
D|4-----4-x-x-4-----4-4---4---x-x|4-----4-x-x-4-----4-4---4---x-x|
A|2-----2-x-x-4-----4-4---4---x-x|2-----2-x-x-4-----4-4---4---x-x|
E|------------2-----2-2---2------|------------2-----2-2---2------|



  Am          Gmaj7               Amaj7      D7sus2
e|0-----0 ------- ------- -------|------- ------- ------- -------|
B|1-----1-x-x-3-----3-3---3---x-x|5-----5-x-x-5-----5-5---5---x-x|
G|2-----2-x-x-4-----4-4---4---x-x|6-----6-x-x-5-----5-5---5---x-x|
D|2-----2-x-x-4-----4-4---4---x-x|6-----6-x-x-7-----7-7---7---x-x|
A|0-----0-x-x--------------------|------------5-----5-5---5------|
E|------------3-----3-3---3------|5-----5------------------------|
              T                   T
e|------- ------- ------- -------|------- ------- ------- -------|
B|-------------------------------|--------------------3-------5--|
G|-------------------------------|-------------------------------|
D|-------------------------------|-------------------------------|
A|-------------------------------|-------------------------------|
E|-------------------------------|-------------------------------|



   Bm          F#m                 Bm          F#m
e|2-----2 ----2-- --2-2-- 2------|2-----2 ----2-- --2-2-- 2------|
B|3-----3-----2-----2-2---2------|3-----3-----2-----2-2---2------|
G|4-----4-x-x-2-----2-2---2---x--|4-----4-----2-----2-2---2---x--|
D|4-----4-x-x-4-----4-4---4---x--|4-----4-----4-----4-4---4---x--|
A|2-----2-x-x-4-----4-4---4---x--|2-----2-----4-----4-4---4---x--|
E|------------2-----2-2---2------|------------2-----2-2---2------|

e|2------ ----5-- ------- -------|2------ ----5-- ------- -------|
B|3-----------2------------------|3-----------2------------------|
G|4-----------2------------------|4-----------2------------------|
D|4-----------2------------------|4-----------2------------------|
A|2------------------------------|2------------------------------|
E|------------2------------------|------------2------------------|


                                             (.           x
  Fmaj7       Gmaj7               Amaj7      D7sus2 
e|0-----0 ----2-- --2-2-- 2------|4-----4 ----5-- ------- -------|
B|1-----1-x---3-----3-3---3---x--|5-----5-x---5------------------|
G|2-----2-x---4-----4-4---4---x--|6-----6-x---5------------------|
D|2-----2-x---4-----4-4---4---x--|6-----6-x---7------------------|
A|-------------------------------|------------5------------------|
E|1-----1-----3-----3-3---3------|5-----5------------------------|
              T                   T
e|------- ------- ------- -------|------- ------- ------- -------|
B|1-----------3------------------|5-----------5------------------|
G|2-----------4------------------|6-----------5------------------|
D|2-----------4------------------|6-----------5------------------|
A|-------------------------------|------------5------------------|
E|1-----------3------------------|5------------------------------|



  Am7                             F#m7
e|5------ 5------ ----5-- ----5--|2------ 2------ ----2-- ----2--|
B|5-------5-----------5-------5--|2-------2-----------2-------2--|
G|5-------5-----------5-------5--|2-------2-----------2-------2--|
D|5-------5-----------5-------5--|2-------2-----------2-------2--|
A|-------------------------------|-------------------------------|
E|5-------5-----------5-------5--|2-------2-----------2-------2--|
              The pebbles you've arranged     In  the sand,  they're 



  Fmaj7                           G13                         
e|0------ 0------ ----0-- ----0--|0------ 0------ ----0-- ----0--|
B|1-------1-----------1-------1--|1-------1-----------1-------3--|
G|2-------2-----------2-------2--|2-------2-----------2-------2--|
D|3-------3-----------3-------3--|3-------3-----------3-------3--|
A|-------------------------------|-------------------------------|
E|1-------1-----------1-------1--|3-------3-----------3-------3--|
  strange    They speak to me like constellations As we lie here 



  Am7                             F#m7
e|5------ 5------ ----5-- ----5--|2------ 2------ ----2-- ----2--|
B|5-------5-----------5-------5--|2-------2-----------2-------2--|
G|5-------5-----------5-------5--|2-------2-----------2-------2--|
D|5-------5-----------5-------5--|2-------2-----------2-------2--|
A|-------------------------------|-------------------------------|
E|5-------5-----------5-------5--|2-------2-----------2-------2--|
            There's a magic I can hold      Your smile of honey gold 


                                          x           x   x x X
  D7sus2                          G13
e|5------ 5------ ----5-- ----5--|0------ 0------ ----0-- ----0--|
B|5-------5-----------5-------5--|1-------1-----------3-------1--|
G|5-------5-----------5-------5--|2-------2-----------2-------2--|
D|7-------7-----------7-------7--|3-------3-----------3-------3--|
A|5-------5-----------5-------5--|-------------------------------|
E|-------------------------------|3-------3-----------3-------3--|
            And that you never seem   to be in   short supply of 



  Bm          F#m7                Bm          F#m7
e|2-----2 ----2-- ----2-- 2------|2-----2 ----2-- ----2-- 2------|
B|3-----3-----2-------2---2------|3-----3-----2-------2---2------|
G|4-----4-----2-------2---2------|4-----4-----2-------2---2------|
D|4-----4-----2-------2---2------|4-----4-----2-------2---2------|
A|2-----2------------------------|2-----2------------------------|
E|------------2-------2---2------|------------2-------2---2------|
  Oooh,                        so baby let's get it on 
e|7-7-7-7 --9-9-9 9---9-- 9-9----|7-7-7-7 --9-9-9 9---9-- 9-9----|
B|7-7-7-7--10101010--12--1012----|7-7-7-7--10101010--12--1012----|
G|7-7-7-7--11111111--11--1111----|7-7-7-7--11111111--11--1111----|
D|9-9-9-9--11111111--11--1111----|9-9-9-9--11111111--11--1111----|
A|-------------------------------|-------------------------------|
E|-------------------------------|-------------------------------|
  



  Fmaj7       Gmaj7               Amaj7       Dm7
e|0-----0 ----2-- --2-2-- 2------|4-----4 ----5-- --5-5-- 5------|
B|1-----1-----3-----3-3---3------|5-----5-----6-----6-6---6------|
G|2-----2-----4-----4-4---4------|6-----6-----5-----5-5---5------|
D|2-----2-----4-----4-4---4------|6-----6-----0-----0-0---0------|
A|-------------------------------|-------------------------------|
E|1-----1-----3-----3-3---3------|5-----5------------------------|
  Drinking    and killing         Sitting 
       wine           time         in the summer sun 
e|------- ------- ------- -------|------- ------- ------- -------|   
B|-------------------------------|-------------------------------|
G|x-x-x-x---x-x-x-x---x---x---x-x|x-x-x---x-x-----x-----x---x1212
D|x-x-x-x---x-x-x-x---x---x---x-x|x-x-x---x-x-----x-----x---x----|
A|x-x-x-x---x-x-x-x---x---x---x-x|x-x-x---x-x-----x-----x---x1010|
E|-------------------------------|-------------------------------|




  Bm          F#m7                Bm          F#m7
e|2-----2 ----2-- ----2-- 2------|2-----2 ----2-- ----2-- 2------|
B|3-----3-----2-------2---2------|3-----3-----2-------2---2------|
G|4-----4-----2-------2---2------|4-----4-----2-------2---2------|
D|4-----4-----2-------2---2------|4-----4-----2-------2---2------|
A|2-----2------------------------|2-----2------------------------|
E|------------2-------2---2------|------------2-------2---2------|
  You         know           I've wanted you so long 
e|7-7-7-7 --9-9-9 9---9-- 9-9----|7-7-7-7 --9-9-9 9---9-- 9-9----|
B|7-7-7-7--10101010--12--1012----|7-7-7-7--10101010--12--1012----|
G|7-7-7-7--11111111--11--1111----|7-7-7-7--11111111--11--1111----|
D|9-9-9-9--11111111--11--1111----|9-9-9-9--11111111--11--1111----|
A|-------------------------------|-------------------------------|
E|-------------------------------|-------------------------------|
  


                                          x           x   x x X
  Fmaj7       Gmaj7               Amaj7       Dm7
e|0-----0 ----2-- --2-2-- 2------|4-----4 ----5-- --5-5-- 5------|
B|1-----1-----3-----3-3---3------|5-----5-----6-----6-6---6------|
G|2-----2-----4-----4-4---4------|6-----6-----5-----5-5---5------|
D|2-----2-----4-----4-4---4------|6-----6-----0-----0-0---0------|
A|-------------------------------|-------------------------------|
E|1-----1-----3-----3-3---3------|5-----5------------------------|
  Why     do      have    to      Drop    that    bomb    on 
e|------- ------- ------- -------|------- ------- ------- -------|   
B|-------------------------------|-------------------------------|
G|x-x-x-x---x-x-x-x---x---x---x-x|x---x---x---x-x-x--x-x----x12--|
D|x-x-x-x---x-x-x-x---x---x---x-x|x---x---x---x-x-x--x-x----x----|
A|x-x-x-x---x-x-x-x---x---x---x-x|x---x---x---x-x-x--x-x----x10--|
E|-------------------------------|-------------------------------|




  Am                              A
e|12--12- 12--12- 12--12- 12--12-|12--12- 12--12- 12--12- 12--12-|
B|13--13--13--13--13--13--13--13-|14--14--14--14--14--14--14--14-|
G|14--14--14--14--14--14--14--14-|14--14--14--14--14--14--14--14-|
D|-------------------------------|-------------------------------|
A|-------------------------------|-------------------------------|
E|-------------------------------|-------------------------------|
  me?         Lazy                days,       crazy 
e|------- ------- ------- -------|------- ------- ------- -------|
B|-------------------------------|-------------------------------|
G|14-\---------------------------|-------------------------------|
D|-------------------------------|-------------------------------|
A|12-\---------------------------|-------------------------------|
E|-------------------------------|-------------------------------|




  Am                                                      C 
e|12--12- 12--12- 12--12- 12--12-|12--12- 12--12- 12--12- 12--12-|
B|13--13--13--13--13--13--13--13-|13--13--13--13--13--13--13--13-|
G|14--14--14--14--14--14--14--14-|14--14--14--14--14--14--12--12-|
D|-------------------------------|-------------------------------|
A|-------------------------------|-------------------------------|
E|-------------------------------|-------------------------------|
  dolls       



  Am                              A
e|12--12- 12--12- 12--12- 12--12-|12--12- 12--12- 12--12- 12--12-|
B|13--13--13--13--13--13--13--13-|14--14--14--14--14--14--14--14-|
G|14--14--14--14--14--14--14--14-|14--14--14--14--14--14--14--14-|
D|-------------------------------|-------------------------------|
A|-------------------------------|-------------------------------|
E|-------------------------------|-------------------------------|
  You         said        we've   been        friends     too 



  Am                                                      C
e|12--12- 12--12- 12--12- 12--12-|12--12- 12--12- 12--12- 12--12-|
B|13--13--13--13--13--13--13--13-|13--13--13--13--13--13--13--13-|
G|14--14--14--14--14--14--14--14-|14--14--14--14--14--14--12--12-|
D|-------------------------------|-------------------------------|
A|-------------------------------|-------------------------------|
E|-------------------------------|-------------------------------|   
  long 



  Am7                             F#m7
e|5------ 5------ ----5-- ----5--|2------ 2------ ----2-- ----2--|
B|5-------5-----------5-------5--|2-------2-----------2-------2--|
G|5-------5-----------5-------5--|2-------2-----------2-------2--|
D|5-------5-----------5-------5--|2-------2-----------2-------2--|
A|-------------------------------|-------------------------------|
E|5-------5-----------5-------5--|2-------2-----------2-------2--|
            Seven days in sunny June         Were long enough to 



  Fmaj7                           G13
e|0------ 0------ ----0-- ----0--|0------ 0------ ----0-- ----0--|
B|1-------1-----------1-------1--|1-------1-----------1-------3--|
G|2-------2-----------2-------2--|2-------2-----------2-------2--|
D|3-------3-----------3-------3--|3-------3-----------3-------3--|
A|-------------------------------|-------------------------------|
E|1-------1-----------1-------1--|3-------3-----------3-------3--|
  bloom      The flowers on the summer   dress you wore in spring 



  Am7                             F#m7
e|5------ 5------ ----5-- ----5--|2------ 2------ ----2-- ----2--|
B|5-------5-----------5-------5--|2-------2-----------2-------2--|
G|5-------5-----------5-------5--|2-------2-----------2-------2--|
D|5-------5-----------5-------5--|2-------2-----------2-------2--|
A|-------------------------------|-------------------------------|
E|5-------5-----------5-------5--|2-------2-----------2-------2--|
            The way we laughed as one        And then you dropped the 



  D7sus2                          G13
e|5------ 5------ ----5-- ----5--|0------ 0------ ----0-- ----0--|
B|5-------5-----------5-------5--|1-------1-----------3-------1--|
G|5-------5-----------5-------5--|2-------2-----------2-------2--|
D|7-------7-----------7-------7--|3-------3-----------3-------3--|
A|5-------5-----------5-------5--|-------------------------------|
E|-------------------------------|3-------3-----------3-------3--|
  bomb     That I've known you too long For us to have a thing        



  Bm          F#m                 Bm          F#m
e|2-----2 ----2-- ----2-- 2------|2-----2 ----2-- ----2-- 2------|
B|3-----3-----2-------2---2------|3-----3-----2-------2---2------|
G|4-----4-----2-------2---2------|4-----4-----2-------2---2------|
D|4-----4-----2-------2---2------|4-----4-----2-------2---2------|
A|2-----2------------------------|2-----2------------------------|
E|------------2-------2---2------|------------2-------2---2------|
   Oooh,                        so baby let's get it on 
e|7-7-7-7 --9-9-9 9---9-- 9-9----|7-7-7-7 --9-9-9 9---9-- 9-9----|
B|7-7-7-7--10101010--12--1012----|7-7-7-7--10101010--12--1012----|
G|7-7-7-7--11111111--11--1111----|7-7-7-7--11111111--11--1111----|
D|9-9-9-9--11111111--11--1111----|9-9-9-9--11111111--11--1111----|
A|-------------------------------|-------------------------------|
E|-------------------------------|-------------------------------|
 



  Fmaj7       Gmaj7               Amaj7       Dm7
e|0-----0 ----2-- --2-2-- 2------|4-----4 ----5-- --5-5-- 5------|
B|1-----1-----3-----3-3---3------|5-----5-----6-----6-6---6------|
G|2-----2-----4-----4-4---4------|6-----6-----5-----5-5---5------|
D|2-----2-----4-----4-4---4------|6-----6-----0-----0-0---0------|
A|-------------------------------|-------------------------------|
E|1-----1-----3-----3-3---3------|5-----5------------------------|
  Drinking    and killing         Sitting 
       wine           time         in the summer sun 
e|------- ------- ------- -------|------- ------- ------- -------|   
B|-------------------------------|-------------------------------|
G|x---x-------x---x-x-x---x-----x|----x-x---x-x---x-x---x---x-x-x|
D|x---x-------x---x-x-x---x-----x|----x-x---x-x---x-x---x---x-x-x|
A|x---x-------x---x-x-x---x-----x|----x-x---x-x---x-x---x---x-x-x|
E|-------------------------------|-------------------------------|




  Bm          F#m                 Bm          F#m
e|2-----2 ----2-- ----2-- 2------|2-----2 ----2-- ----2-- 2------|
B|3-----3-----2-------2---2------|3-----3-----2-------2---2------|
G|4-----4-----2-------2---2------|4-----4-----2-------2---2------|
D|4-----4-----2-------2---2------|4-----4-----2-------2---2------|
A|2-----2------------------------|2-----2------------------------|
E|------------2-------2---2------|------------2-------2---2------|
  You         know           I've wanted you so long 
e|7-7-7-7 --9-9-9 9---9-- 9-9----|7-7-7-7 --9-9-9 9---9-- 9-9----|
B|7-7-7-7--10101010--12--1012----|7-7-7-7--10101010--12--1012----|
G|7-7-7-7--11111111--11--1111----|7-7-7-7--11111111--11--1111----|
D|9-9-9-9--11111111--11--1111----|9-9-9-9--11111111--11--1111----|
A|-------------------------------|-------------------------------|
E|-------------------------------|-------------------------------|
  



  Fmaj7       Gmaj7               Amaj7       Dm7
e|0-----0 ----2-- --2-2-- 2------|4-----4 ----5-- --5-5-- 5------|
B|1-----1-----3-----3-3---3------|5-----5-----6-----6-6---6------|
G|2-----2-----4-----4-4---4------|6-----6-----5-----5-5---5------|
D|2-----2-----4-----4-4---4------|6-----6-----0-----0-0---0------|
A|-------------------------------|-------------------------------|
E|1-----1-----3-----3-3---3------|5-----5------------------------|
  Why     do      have    to      Drop    that    bomb    on 
e|------- ------- ------- -------|------- ------- ------- -------|   
B|-------------------------------|--------------------------1212-|
G|x---x-----x-x---x-x-x---x---x-x|x---x---x-x---x-x---x-x-x------|
D|x---x-----x-x---x-x-x---x---x-x|x---x---x-x---x-x---x-x-x--9-9-|
A|x---x-----x-x---x-x-x---x---x-x|x---x---x-x---x-x---x-x-x------|
E|-------------------------------|-------------------------------|    



  Bm          F#m                 Bm          F#m
e|2-----2 ----2-- ----2-- 2------|2-----2 ----2-- ----2-- 2------|
B|3-----3-----2-------2---2------|3-----3-----2-------2---2------|
G|4-----4-----2-------2---2------|4-----4-----2-------2---2------|
D|4-----4-----2-------2---2------|4-----4-----2-------2---2------|
A|2-----2------------------------|2-----2------------------------|
E|------------2-------2---2------|------------2-------2---2------|
  Oooh,                        so baby let's get it on 
  me
e|7-7-7-7 --9-9-9 9---9-- 9-9----|7-7-7-7 --9-9-9 9---9-- 9------|
B|7-7-7-7--10101010--12--1012----|7-7-7-7--10101010--12--10------|
G|7-7-7-7--11111111--11--1111----|7-7-7-7--11111111--11--11------|
D|9-9-9-9--11111111--11--1111----|9-9-9-9--11111111--11--11------|
A|-------------------------------|-------------------------------|
E|-------------------------------|-------------------------------|
  



  Fmaj7       Gmaj7               Amaj7      D7sus2
e|0-----0 ----2-- --2-2-- 2------|4-----4 ----5-- --5-5-- 5------|
B|1-----1-----3-----3-3---3------|5-----5-----5-----5-5---5------|
G|2-----2-----4-----4-4---4------|6-----6-----5-----5-5---5------|
D|2-----2-----4-----4-4---4------|6-----6-----7-----7-7---7------|
A|-------------------------------|------------5-----5-5---5------|
E|1-----1-----3-----3-3---3------|5-----5------------------------|
  Drinking    and killing         Sitting 
       wine           time         in the summer sun 
e|------- ------- ------- -------|------- ------- ------- -------|   
B|-------------------------------|-------------------------------|
G|x-x-x---x-x-x---x---x---x---x-x|x---x---x-x---x-12-12---1212---|
D|x-x-x---x-x-x---x---x---x---x-x|x---x---x-x---x----------------|
A|x-x-x---x-x-x---x---x---x---x-x|x---x---x-x---x-10-10---1010---|
E|-------------------------------|-------------------------------|




  Bm          F#m                 Bm          F#m
e|2-----2 ----2-- ----2-- 2------|2-----2 ----2-- ----2-- 2------|
B|3-----3-----2-------2---2------|3-----3-----2-------2---2------|
G|4-----4-----2-------2---2------|4-----4-----2-------2---2------|
D|4-----4-----2-------2---2------|4-----4-----2-------2---2------|
A|2-----2------------------------|2-----2------------------------|
E|------------2-------2---2------|------------2-------2---2------|
  You         know           I've wanted you so long 
e|7-7-7-7 --9-9-9 9---9-- 9------|7-7-7-7 --9-9-9 9---9-- 9-9----|
B|7-7-7-7--10101010--12--10------|7-7-7-7--10101010--12--1012----|
G|7-7-7-7--11111111--11--11------|7-7-7-7--11111111--11--1111----|
D|9-9-9-9--11111111--11--11------|9-9-9-9--11111111--11--1111----|
A|-------------------------------|-------------------------------|
E|-------------------------------|-------------------------------|
  


                                          x           x   x x X
  Fmaj7       Gmaj7               Amaj7       Dm7
e|0-----0 ----2-- --2-2-- 2------|4-----4 ----5-- --5-5-- 5------|
B|1-----1-----3-----3-3---3------|5-----5-----6-----6-6---6------|
G|2-----2-----4-----4-4---4------|6-----6-----5-----5-5---5------|
D|2-----2-----4-----4-4---4------|6-----6-----0-----0-0---0------|
A|-------------------------------|-------------------------------|
E|1-----1-----3-----3-3---3------|5-----5------------------------|
  Why     do      have    to      Drop    that    bomb    on 
e|------- ------- ------- -------|------- ------- ------- -------|   
B|-------------------------------|-------------------------------|
G|x-x-x---x-----x-x-x-x-x-x---x-x|x-x-x-----x---x-x-x-x---x-x-x--|
D|x-x-x---x-----x-x-x-x-x-x---x-x|x-x-x-----x---x-x-x-x---x-x-x--|
A|x-x-x---x-----x-x-x-x-x-x---x-x|x-x-x-----x---x-x-x-x---x-x-x--|
E|-------------------------------|-------------------------------|  




  Am7                             F#m7           B7sus4
e|------- ------- ------- -------|0------ ------- 0---0-- -------| 
B|5-------------------1-------3--|2---------------0---0----------|
G|5------------------------------|2---------------2---2-------2--|
D|5------------------------------|2---------------2---2-------2--|
A|-------------------------------|-------------------------------|
E|5------------------------------|2---------------2--------------|
  me      Could it be this? The stories in your eyes   Tell the silent 



  D7sus2
e|------- ------- ------- -------|------- ------- ------- -------|
B|5------------------------------|-------------------------------|
G|5------------------------------|-------------------------------|
D|7------------------------------|-------------------------------|
A|5------------------------------|-------------------------------|
E|-------------------------------|-------------------------------|
      wings            You'll fly away on                   Seven days



  Bm          F#m                 Bm          F#m
e|2-----2 2---2-- --2-2-- 2------|2-----2 2---2-- --2-2-- 2------|
B|3-----3-3---2-----2-2---2------|3-----3-3---2-----2-2---2------|
G|4-----4-4---2-----2-2---2---x--|4-----4-4---2-----2-2---2---x--|
D|4-----4-4---4-----4-4---4---x--|4-----4-4---4-----4-4---4---x--|
A|2-----2-2---4-----4-4---4---x--|2-----2-2---4-----4-4---4---x--|
E|------------2-----2-2---2------|------------2-----2-2---2------|
     in sunny June         Were long enough to bloom          The 
e|2------ ----5-- ------- -------|2------ ----5-- ------- -------|
B|3-----------2------------------|3-----------2------------------|
G|4-----------2------------------|4-----------2------------------|
D|4-----------2------------------|4-----------2------------------|
A|2------------------------------|2------------------------------|
E|------------2------------------|------------2------------------|




  Am          Gmaj7               Amaj7      D7sus2
e|0-----0 0------ ------- -------|------- ------- ------- -------|
B|1-----1-1---3-----3-3---3---x--|5-----5-5---5-----5-5---5---x-x|
G|2-----2-2---4-----4-4---4---x--|6-----6-6---5-----5-5---5---x-x|       
D|2-----2-2---4-----4-4---4---x--|6-----6-6---7-----7-7---7---x-x|
A|0-----0-0----------------------|------------5-----5-5---5------|
E|------------3-----3-3---3------|5-----5-5----------------------|
  flowers on the  sunbeam dress you wore in spring        Yeah
e|------- ------- ------- -------|------- ------- ------- -------|
B|1-----------3------------------|5-----------5------------------|
G|2-----------4------------------|6-----------5------------------|
D|2-----------4------------------|6-----------5------------------|
A|-------------------------------|------------5------------------|
E|1-----------3------------------|5------------------------------|




  Bm          F#m                 Bm          F#m                  
e|2-----2 2---2-- --2-2-- 2------|2-----2 2---2-- --2-2-- 2------|
B|3-----3-3---2-----2-2---2------|3-----3-3---2-----2-2---2------|
G|4-----4-4---2-----2-2---2---x--|4-----4-4---2-----2-2---2---x--|
D|4-----4-4---4-----4-4---4---x--|4-----4-5---4-----4-4---4---x--|
A|2-----2-2---4-----4-4---4---x--|2-----2-2---4-----4-4---4---x--|
E|------------2-----2-2---2------|------------2-----2-2---2------|
  Yeah            the way we laughed as one 
e|2------ ----5-- ------- -------|2------ ----5-- ------- -------|
B|3-----------2------------------|3-----------2------------------|
G|4-----------2------------------|4-----------2------------------|
D|4-----------2------------------|4-----------2------------------|
A|2------------------------------|2------------------------------|
E|------------2------------------|------------2------------------|


                                  x X X x     x X X xxx x X X X 
                                             (.
  Fmaj7       Gmaj7               Amaj7      D7sus2
e|0-----0 0---2-- --2-2-- 2------|4-----4 4---5-- ------- -------|
B|1-----1-1---3-----3-3---3---x--|5-----5-5---5------------------|
G|2-----2-2---4-----4-4---4---x--|6-----6-6---5------------------|
D|2-----2-2---4-----4-4---4---x--|6-----6-6---7------------------|
A|-------------------------------|------------5------------------|
E|1-----1-1---3-----3-3---3------|5-----5-5----------------------|
              T                   T
                                  Why did you drop the bomb on me? 
e|8------ ---12-- ------- -------|12----- ------- ------- -------|
B10----------12------------------|14----------5------------------|
G|9----------11------------------|13----------5------------------|
D10----------12------------------|14----------5------------------|
A|8----------10------------------|12----------5------------------|
E|-------------------------------|-------------------------------|     




  Bm          F#m                 Bm          F#m
e|2-----2 ----2-- ----2-- 2------|2-----2 ----2-- ----2-- 2------|
B|3-----3-----2-------2---2------|3-----3-----2-------2---2------|
G|4-----4-----2-------2---2------|4-----4-----2-------2---2------|
D|4-----4-----2-------2---2------|4-----4-----2-------2---2------|
A|2-----2------------------------|2-----2------------------------|
E|------------2-------2---2------|------------2-------2---2------|
  Oooh,                        so baby let's get it on 
e|7-7-7-7 --9-9-9 9---9-- 9------|7-7-7-7 --9-9-9 9---9-- 9-9----|
B|7-7-7-7--10101010--12--10------|7-7-7-7--10101010--12--1012----|
G|7-7-7-7--11111111--11--11------|7-7-7-7--11111111--11--1111----|
D|9-9-9-9--11111111--11--11------|9-9-9-9--11111111--11--1111----|
A|-------------------------------|-------------------------------|
E|-------------------------------|-------------------------------|
  



  Fmaj7       Gmaj7               Amaj7      D7sus2
e|0-----0 ----2-- --2-2-- 2------|4-----4 ----5-- --5-5-- 5------|
B|1-----1-----3-----3-3---3------|5-----5-----5-----5-5---5------|
G|2-----2-----4-----4-4---4------|6-----6-----5-----5-5---5------|
D|2-----2-----4-----4-4---4------|6-----6-----7-----7-7---7------|
A|-------------------------------|------------5-----5-5---5------|
E|1-----1-----3-----3-3---3------|5-----5------------------------|
  Drinking    and killing         Sitting 
       wine           time         in the summer sun 
e|------- ------- ------- -------|------- ------- ------- -------|   
B|-------------------------------|-------------------------------|
G|x---x-------x---x-x-x---x-----x|----x-x---x-x---x-x---x---x-x-x|
D|x---x-------x---x-x-x---x-----x|----x-x---x-x---x-x---x---x-x-x|
A|x---x-------x---x-x-x---x-----x|----x-x---x-x---x-x---x---x-x-x|
E|-------------------------------|-------------------------------|




  Bm          F#m                 Bm          F#m
e|2-----2 ----2-- ----2-- 2------|2-----2 ----2-- ----2-- 2------|
B|3-----3-----2-------2---2------|3-----3-----2-------2---2------|
G|4-----4-----2-------2---2------|4-----4-----2-------2---2------|
D|4-----4-----2-------2---2------|4-----4-----2-------2---2------|
A|2-----2------------------------|2-----2------------------------|
E|------------2-------2---2------|------------2-------2---2------|
  You         know           I've wanted you so long 
e|7-7-7-7 --9-9-9 9---9-- 9-9----|7-7-7-7 --9-9-9 9---9-- 9-9----|
B|7-7-7-7--10101010--12--1012----|7-7-7-7--10101010--12--1012----|
G|7-7-7-7--11111111--11--1111----|7-7-7-7--11111111--11--1111----|
D|9-9-9-9--11111111--11--1111----|9-9-9-9--11111111--11--1111----|
A|-------------------------------|-------------------------------|
E|-------------------------------|-------------------------------|
  



  Fmaj7       Gmaj7               Amaj7      D7sus2
e|0-----0 ----2-- --2-2-- 2------|4-----4 ----5-- --5-5-- 5------|
B|1-----1-----3-----3-3---3------|5-----5-----5-----5-5---5------|
G|2-----2-----4-----4-4---4------|6-----6-----5-----5-5---5------|
D|2-----2-----4-----4-4---4------|6-----6-----7-----7-7---7------|
A|-------------------------------|------------5-----5-5---5------|
E|1-----1-----3-----3-3---3------|5-----5------------------------|
  Why     do      have    to      Drop    that    bomb    on 
                                                          Could it  
                                                             be that?
e|------- ------- ------- -------|------- ------- ------- -------|   
B|-------------------------------|--------------------------1212-|
G|x---x-----x-x---x-x-x---x---x-x|x---x---x-x---x-x---x-x-x------|
D|x---x-----x-x---x-x-x---x---x-x|x---x---x-x---x-x---x-x-x--9-9-|
A|x---x-----x-x---x-x-x---x---x-x|x---x---x-x---x-x---x-x-x------|
E|-------------------------------|-------------------------------|    



  Bm          F#m                 Bm          F#m
e|2-----2 ----2-- ----2-- 2------|2-----2 ----2-- ----2-- 2------|
B|3-----3-----2-------2---2------|3-----3-----2-------2---2------|
G|4-----4-----2-------2---2------|4-----4-----2-------2---2------|
D|4-----4-----2-------2---2------|4-----4-----2-------2---2------|
A|2-----2------------------------|2-----2------------------------|
E|------------2-------2---2------|------------2-------2---2------|
  me          The honeysuckle     blessings seem to show me           
                                                         Could it 
                                                             be that?
e|7-7-7-7 --9-9-9 9---9-- 9-9----|7-7-7-7 --9-9-9 9---9-- 9------|
B|7-7-7-7--10101010--12--1012----|7-7-7-7--10101010--12--10------|
G|7-7-7-7--11111111--11--1111----|7-7-7-7--11111111--11--11------|
D|9-9-9-9--11111111--11--1111----|9-9-9-9--11111111--11--11------|
A|-------------------------------|-------------------------------|
E|-------------------------------|-------------------------------| 

 
  
  Fmaj7       Gmaj7               Amaj7      D7sus2
e|0-----0 ----2-- --2-2-- 2------|4-----4 ----5-- --5-5-- 5------|
B|1-----1-----3-----3-3---3------|5-----5-----5-----5-5---5------|
G|2-----2-----4-----4-4---4------|6-----6-----5-----5-5---5------|
D|2-----2-----4-----4-4---4------|6-----6-----7-----7-7---7------|
A|-------------------------------|------------5-----5-5---5------|
E|1-----1-----3-----3-3---3------|5-----5------------------------|  
              For seven days in June  I wasn't lonely     
                                                          Could it
                                                             be that?
e|------- ------- ------- -------|------- ------- ------- -------|   
B|-------------------------------|-------------------------------|
G|x-x-x---x-x-x---x---x---x---x-x|x---x---x-x---x-12-12---1212---|
D|x-x-x---x-x-x---x---x---x---x-x|x---x---x-x---x----------------|
A|x-x-x---x-x-x---x---x---x---x-x|x---x---x-x---x-10-10---1010---|
E|-------------------------------|-------------------------------|



  Bm          F#m                 Bm          F#m
e|2-----2 ----2-- ----2-- 2------|2-----2 ----2-- ----2-- 2------|
B|3-----3-----2-------2---2------|3-----3-----2-------2---2------|
G|4-----4-----2-------2---2------|4-----4-----2-------2---2------|
D|4-----4-----2-------2---2------|4-----4-----2-------2---2------|
A|2-----2------------------------|2-----2------------------------|
E|------------2-------2---2------|------------2-------2---2------|
              You never gave me time to say   I  love you
                                                          Could it
                                                             be that? 
e|7-7-7-7 --9-9-9 9---9-- 9------|7-7-7-7 --9-9-9 9---9-- 9-9----|
B|7-7-7-7--10101010--12--10------|7-7-7-7--10101010--12--1012----|
G|7-7-7-7--11111111--11--11------|7-7-7-7--11111111--11--1111----|
D|9-9-9-9--11111111--11--11------|9-9-9-9--11111111--11--1111----|
A|-------------------------------|-------------------------------|
E|-------------------------------|-------------------------------|
  

                                                  x X X x X   x X
  Fmaj7       Gmaj7               Amaj7      D7sus2 
e|0-----0 ----2-- --2-2-- 2------|4-----4 ----5-- --5-5-- 5------|
B|1-----1-----3-----3-3---3------|5-----5-----5-----5-5---5------|
G|2-----2-----4-----4-4---4------|6-----6-----5-----5-5---5------|
D|2-----2-----4-----4-4---4------|6-----6-----7-----7-7---7------|
A|-------------------------------|------------5-----5-5---5------|
E|1-----1-----3-----3-3---3------|5-----5------------------------|
              I know you don't believe me but it's so true
e|------- ------- ------- -------|------- ------- ------- -------|   
B|-------------------------------|-------------------------------|
G|x-x-x---x-----x-x-x-x-x-x---x-x|x-x-x-----x---x-x-x-x---x-x-x--|
D|x-x-x---x-----x-x-x-x-x-x---x-x|x-x-x-----x---x-x-x-x---x-x-x--|
A|x-x-x---x-----x-x-x-x-x-x---x-x|x-x-x-----x---x-x-x-x---x-x-x--|
E|-------------------------------|-------------------------------|  



  Bm          F#m                 Bm          F#m
e|2-----2 ----2-- ----2-- 2------|2-----2 ----2-- ----2-- 2------|
B|3-----3-----2-------2---2------|3-----3-----2-------2---2------|
G|4-----4-----2-------2---2------|4-----4-----2-------2---2------|
D|4-----4-----2-------2---2------|4-----4-----2-------2---2------|
A|2-----2------------------------|2-----2------------------------|
E|------------2-------2---2------|------------2-------2---2------|
    Don't walk away from                   I read      
                      me, girl                the sories in your eyes  
e17--14--17---7-9 --7-7H9 7------17---17- 17-12-- ---1212 12-----| 
B17--15--17---7-7---7-7---7--10--17H1917--15-12H14---1212-12-----|
G|------------7-7---7-7---7------|---------------------------14--|
D|-------------------------------|-------------------------------|
A|-------------------------------|-------------------------------|
E|-------------------------------|-------------------------------|
  



  Fmaj7       Gmaj7               Amaj7      D7sus2
e|0-----0 0---2-- --2-2-2 2---2--|4-----4 ----5-- --5---- 5------|
B|1-----1-1---3-----3-3-3-3---3--|5-----5-----5-----5-----5------|
G|2-----2-2---4-----4-4-4-4---4--|6-----6-----5-----5-----5------|
D|2-----2-2---4-----4-4-4-4---4--|6-----6-----7-----7-----7------|
A|-------------------------------|------------5-----5-----5------|
E|1-----1-1---3-----3-3-3-3---3--|5-----5------------------------|
                                                  Don't you walk   
                                                               away


  Bm          F#m                 Bm          F#m
e|2-----2 ----2-- ----2-- 2------|2-----2 ----2-- ----2-- 2------|
B|3-----3-----2-------2---2------|3-----3-----2-------2---2------|
G|4-----4-----2-------2---2------|4-----4-----2-------2---2------|
D|4-----4-----2-------2---2------|4-----4-----2-------2---2------|
A|2-----2------------------------|2-----2------------------------|
E|------------2-------2---2------|------------2-------2---2------|
    from me                                 I read stories 
                                                         in your eyes 
e|------- ------- ------- -------|------- ------- ------- -------|
B|-------------------------------|7B8-----7-------5--------------|
G|9B11----6-/-9----7B9-----------|------------------------7---4--|
D|------------------------7------|-------------------------------|
A|-------------------------------|-------------------------------|
E|-------------------------------|-------------------------------|



                                                  x x x x X X X X
  Fmaj7       Gmaj7               Amaj7      D7sus2
e|0-----0 ----2-- --2-2-- 2------|4-----4 ----5-- --5-5-- 5------|
B|1-----1-----3-----3-3---3------|5-----5-----5-----5-5---5------|
G|2-----2-----4-----4-4---4------|6-----6-----5-----5-5---5------|
D|2-----2-----4-----4-4---4------|6-----6-----7-----7-7---7------|
A|-------------------------------|------------5-----5-5---5------|
E|1-----1-----3-----3-3---3------|5-----5------------------------|
                    And you've been telling me 
                                         we've been friends 
                                                       for too long 
e|------- ------- ------- -------|------- ------- ------- -------|
B|-------------------------------|-------------------------------|
G|4----~-------------------------|-------------------------------|
D|-------------------------------|-------------------------------|
A|-------------------------------|-------------------------------|
E|-------------------------------|-------------------------------|




  Bm          F#m                 Bm          F#m
e|2-----2 ----2-- ----2-- 2------|2-----2 ----2-- ----2-- 2------|
B|3-----3-----2-------2---2------|3-----3-----2-------2---2------|
G|4-----4-----2-------2---2------|4-----4-----2-------2---2------|
D|4-----4-----2-------2---2------|4-----4-----2-------2---2------|
A|2-----2------------------------|2-----2------------------------|
E|------------2-------2---2------|------------2-------2---2------|
  Yeah                                     I could have 
                                                  loved you
e|------- ------- ------- -------|------- ------- ------- -------|
B|-------------------------------|7B8-----7-------5--------------|
G|9B11----6-/-9----7B9-----------|------------------------7---4--|
D|------------------------7------|-------------------------------|
A|-------------------------------|-------------------------------|
E|-------------------------------|-------------------------------|


         

  Fmaj7       Gmaj7               Amaj7      D7sus2  
e|0-----0 ----2-- --2-2-- 2------|4-----4 ----5-- --5-5-- 5------|
B|1-----1-----3-----3-3---3------|5-----5-----5-----5-5---5------|
G|2-----2-----4-----4-4---4------|6-----6-----5-----5-5---5------|
D|2-----2-----4-----4-4---4------|6-----6-----7-----7-7---7------|
A|-------------------------------|------------5-----5-5---5------|
E|1-----1-----3-----3-3---3------|5-----5------------------------|
   I could                              Why you wannna  
      have loved you                              drop the bomb?
e|------- ------- ------- -------|------- ------- ------- -------|
B|-------------------------------|-------------------------------|
G|4---~--------------------------|-------------------------------|
D|-------------------------------|-------------------------------|
A|-------------------------------|-------------------------------|
E|-------------------------------|-------------------------------|




  Bm          F#m                 Bm          F#m
e|2-----2 ----2-- ----2-- 2------|2-----2 ----2-- ----2-- 2------|
B|3-----3-----2-------2---2------|3-----3-----2-------2---2------|
G|4-----4-----2-------2---2------|4-----4-----2-------2---2------|
D|4-----4-----2-------2---2------|4-----4-----2-------2---2------|
A|2-----2------------------------|2-----2------------------------|
E|------------2-------2---2------|------------2-------2---2------|
                                                
e|------- ------- ------- -------|------- ------- ------- -------|
B|-------------------------------|7B8-----7-------5--------------|
G|9B11----6-/-9----7B9-----------|------------------------7---4--|
D|------------------------7------|-------------------------------|
A|-------------------------------|-------------------------------|
E|-------------------------------|-------------------------------|


         
                                                    xxx x x X X X
  Fmaj7       Gmaj7               Amaj7       D7sus2
e|0-----0 ----2-- --2-2-- 2------|4-----4 ----5-- --5-5-- 5------|
B|1-----1-----3-----3-3---3------|5-----5-----5-----5-5---5------|
G|2-----2-----4-----4-4---4------|6-----6-----5-----5-5---5------|
D|2-----2-----4-----4-4---4------|6-----6-----7-----7-7---7------|
A|-------------------------------|------------5-----5-5---5------|
E|1-----1-----3-----3-3---3------|5-----5------------------------|
        
e|------- ------- ------- -------|------- ------- ------- -------|
B|-------------------------------|-------------------------------|
G|4---~--------------------------|-------------------------------|
D|-------------------------------|-------------------------------|
A|-------------------------------|-------------------------------|
E|-------------------------------|-------------------------------|




  Bm7
e|------- ------- ------- -------|------- ------- ------- -------|
B|3------------------------------|-------------------------------|
G|2------------------------------|-------------------------------|
D|4------------------------------|-------------------------------|
A|2------------------------------|-------------------------------|
E|-------------------------------|-------------------------------|
  Bm          F#m                 Bm          F#m          
e|2------ ----2-- ------- -------|2------ ----2-- ------- -------|
B|3-----------2------------------|3-----------2------------------|
G|4-----------2------------------|4-----------2-------2-------4--|
D|4-----------2------------------|4-----------2------------------|
A|2------------------------------|2------------------------------|
E|------------2------------------|------------2------------------|

e|2-----2 2---2-- --2-2-- 2------|2-----2 2---2-- --2-2-- 2------|
B|3-----3-3---2-----2-2---2------|3-----3-3---2-----2-2---2------|
G|4-----4-4---2-----2-2---2---x--|4-----4-4---2-----2-2---2---x--|
D|4-----4-4---4-----4-4---4---x--|4-----4-4---4-----4-4---4---x--|
A|2-----2-2---4-----4-4---4---x--|2-----2-2---4-----4-4---4---x--|
E|------------2-----2-2---2------|------------2-----2-2---2------|



 (.
  Fmaj7
e|0------ ------- ------- -------|------- ------- ------- -------|
B|1------------------------------|-------------------------------|
G|2------------------------------|-------------------------------|
D|2------------------------------|-------------------------------|
A|-------------------------------|-------------------------------|
E|1------------------------------|-------------------------------|









        B  Bend
        R  Release
        /  Slide up
        \  Slide down
        H  Hammer-on
        P  Pull-off
        ~  Vibrato
        +  Harmonic
        x  Mute note
        .  Play note like a dot in standard notation
        ^  Ties two notes together
        (. Pause
        T  Use thumb





Comments


Popular Jamiroquai tabs & chords
Drifting Along Bass Tabs
Love Foolosophy Bass Tabs
Main Vian Bass Tabs
Shes A Fast Persuader Bass Tabs
When You Gonna Learn 3 Bass Tabs
You Give Me Something 1 Bass Tabs
Cosmic Girl Chords
Everyday Chords
Feel So Good Chords
Talullah Tabs


Song lyrics



↑ Back to top | Tablatures and chords are parodies/interpretations of the original songs. You may use it for private study, scholarship, research or language learning purposes only
© 2014 AZChords.com Contact us | Privacy policy | DMCA | Add/correct tabs | Request tabs | Top 50 tabs