» » »

Jamiroquai, Manifest Destiny Tabs (ver.1)

Artists:  A B C D E F G H I J K L M N O P Q R S T U V W X Y Z # 

Manifest Destiny Tabs (ver.1)

Jamiroquai Tabs
 Rating:
4/5 (4 votes)
Manifest Destiny lessons Tabs too difficult? Try these video lessons and learn fast
1
                
************************************************************************
Verse Chords

   Bmin7        A#dim7	     Emin9	      Gmaj7
|---------|  |---------|  |---------|  |---------|  
|----7----|  |----5----|  |----7----|  |----3----|  
|----7----|  |----6----|  |----7----|  |----4----|  
|----7----|  |----5----|  |----5----|  |----4----|  
|---------|  |---------|  |----7----|  |---------|  
|----7----|  |----6----|  |---------|  |----3----|  

Chorus Chords

   Amin7        Gmin7			Cmin7
|---------|  |---------|  |---------|  |---------|  
|----5----|  |----3----|  |----4----|  |----4----|  
|----5----|  |----3----|  |----3----|  |----3----|  
|----5----|  |----3----|  |----1----|or|----5----|  
|---------|  |---------|  |----3----|  |----3----|  
|----5----|  |----3----|  |---------|  |---------|  

  DbMaj9	    CMaj9
|----4----|  |---------|  
|----4----|  |----3----|  
|----4----|  |----3----|  
|----3----|  |----2----|  
|----4----|  |----3----|  
|---------|  |---------|  

Ending Chords

   Amin7        Bb13	    EbMaj7	      Ab11
|---------|  |---------|  |---------|  |---------|  
|----5----|  |----8----|  |----8----|  |----2----|  
|----5----|  |----7----|  |----7----|  |----3----|  
|----5----|  |----6----|  |----8----|  |----4----|  
|---------|  |---------|  |----6----|  |---------|  
|----5----|  |----6----|  |---------|  |----4----|  
************************************************************************

Intro

{Bmin7  A#dim7 Emin9 GMaj7 A#dim7} x2

Verse

       Bmin7                 A#dim7 
It was four hundred years or more 
Emin9              GMaj7 A#dim7
since you came to crucify. 
          Bmin7               A#dim7 
They were taken far away from home. 
           Emin9             GMaj7 A#dim7 
There were promises of paradise. 
                     Bmin7                            A#dim7 
But if they had been told that day that they would be sold 
            Emin9                       GMaj7 A#dim7 
this way to satisfy the souls of chosen men. 
                  Bmin7                        A#dim7 
See I had to look carefully at the shame of my ancestry to 
Emin9                     GMaj7 A#dim7 
redefine the storyline again

Chorus

         Amin7               Gmin7
If I was taken for a day and shown another way. 
    Cmin7                             DbMaj9              
Now every child can learn a different thing. 
       Amin7                       Gmin7   
See, I tried a millin times, but I had to change my mind. 
Cmin7                              DbMaj9 
Sadness was the best thing I could bring. 
       Amin7                  Gmin7
On the inside he was dead and this is what he said, 
      Cmin7                        DbMaj9 
as he took away the blue above the clouds. 
  Amin7         Gmin7
Superiority was clearly meant to be 
   Cmin7                    DbMaj9 CMaj9 
so destiny will manifest in time.

End

Amin7  Bb13  EbMaj7  Ab11
            
Submit corrections

comments powered by Disqus
↑ Back to top | Jamiroquai Tabs for Manifest Destiny. Lyrics for acoustic guitar and electric guitar. 1 Tablatures and chords are parodies/interpretations of the original songs. You may use it for private study, scholarship, research or language learning purposes only