» » »

Love Foolosophy Bass tabs (ver.4)

Artists:  A B C D E F G H I J K L M N O P Q R S T U V W X Y Z # 

Love Foolosophy Bass tabs (ver.4)

Jamiroquai
Rating:
2/5 (1 vote)

Hard to play? Try these video lessons and learn fast.
                                                                             
  
G||-------||--------|-------|-------|--------||----------4------4------------|
D||-------||*-------|-------|-------|-------*||*-----------------------------|
A||-------||*-------|-------|-------|-------*||*--2-----------2----2---------|
E||-------||--------|-------|-------|--------||------------------------------|

  
--------9------------------|-----------------5-----------|
---------------------------|-----------------------------|
--7-----------7-----7--7-7-|--3------3-----3----3-----3--|
---------------------------|-----------------------------|


  
-----------------------------||--------------------------|
-----x--2--4--2-------------*||-----------2--4-----------|
--2---------------2-2-3--2--*||--2-----2--------2----12--|
-----------------------------||--------------------------|

   
|-------------------------------|----------------------------|
|*------------------------------|---------4--4-4-2--4--------|
|*--2------2-----x-2--4---------|----------------------------|
|---------------------------2---|------2---------------------|


 
-----------------6-----------|------------------------------|
-----------------------------|------------------------------|
--4------4-----4----4-----4--|--3------3-----3-5--7--7--8-8-|
-----------------------------|------------------------------|


   
------------------------------|----------------------------|
------------------------------|---------4--4-4-2--4--------|
--2------2-----x-2--4---------|----------------------------|
--------------------------2---|------2---------------------|


      
-----------------6-----------|-------------------------------||
-----------------------------|------------------------------*||
--4------4-----4----4-----4--|--3------3-----3-5--7--7--8-8-*||
-----------------------------|-------------------------------||


   
-------------17------16------14--||-----------------------4--------|
---------------------------------||*-------------------------------|
--3------15------14------12------||*--2-2-2-2-2---2---2---------x--|
---------------------------------||--------------------------------|


     
----------------------9--------|----------------------5-------|
-------------------------------|------------------------------|
--7-7-7-7-7---7---7---------x--|--3-3-3-3-3---3---3-----------|
-------------------------------|------------------------------|


  
----------------------4------2---||--------------------------------|
--------------------------------*||--------------------------------|
--2-2-2-2-2---2---2------0------*||--2-2-2-2-2---2---2---2--12--2--|
---------------------------------||--------------------------------|


 
|-------------------------------|----------------------------|
|*------------------------------|---------4--4-4-2--4--------|
|*--2------2-----x-2--4---------|----------------------------|
|---------------------------2---|------2---------------------|


  
-----------------6-----------|------------------------------|
-----------------------------|------------------------------|
--4------4-----4----4-----4--|--3------3-----3-5--7--7--8-8-|
-----------------------------|------------------------------|


   
------------------------------|----------------------------|
------------------------------|---------4--4-4-2--4--------|
--2------2-----x-2--4---------|----------------------------|
--------------------------2---|------2---------------------|


   
-----------------6-----------|-------------------------------||
-----------------------------|------------------------------*||
--4------4-----4----4-----4--|--3------3-----3-5--7--7--8-8-*||
-----------------------------|-------------------------------||


  
-------------17------16------14--||----------4------4------------|
---------------------------------||*-----------------------------|
--3------15------14------12------||*--2-----------2----2---------|
---------------------------------||------------------------------|


   
--------9------------------|-----------------5-----------|
---------------------------|-----------------------------|
--7-----------7-----7--7-7-|--3------3-----3----3-----3--|
---------------------------|-----------------------------|


   
-----------------------------||--------------------------|
-----x--2--4--2-------------*||-----------2--4-----------|
--2---------------2-2-3--2--*||--2-----2--------2----12--|
-----------------------------||--------------------------|


     
|-------------------------------|----------------------------|
|*------------------------------|---------4--4-4-2--4--------|
|*--2------2-----x-2--4---------|----------------------------|
|---------------------------2---|------2---------------------|



-----------------6-----------|------------------------------|
-----------------------------|------------------------------|
--4------4-----4----4-----4--|--3------3-----3-5--7--7--8-8-|
-----------------------------|------------------------------|


  
------------------------------|----------------------------|
------------------------------|---------4--4-4-2--4--------|
--2------2-----x-2--4---------|----------------------------|
--------------------------2---|------2---------------------|


                                                             4x
-----------------6-----------|-------------------------------||
-----------------------------|------------------------------*||
--4------4-----4----4-----4--|--3------3-----3-5--7--7--8-8-*||
-----------------------------|-------------------------------||


  
-------------17------16------14--||
---------------------------------||
--3------15------14------12------||
---------------------------------||
            
Hard to play? Try these video lessons and learn fast. | Correct




comments powered by Disqus
↑ Back to top | Tablatures and chords are parodies/interpretations of the original songs. You may use it for private study, scholarship, research or language learning purposes only