>
 >
Little L

Little L Guitar Tabs

Jamiroquai - Little L chords, tabs, tablatures, lyrics

Guitar lessons | Add/correct | Request | Top 50 tabs Artists:  A B C D E F G H I J K L M N O P Q R S T U V W X Y Z 0-9

Little L Guitar Tabs – Jamiroquai

CD, Sheet music, Poster

Do you like Little L? Share with your friends now
Bass TabsChordsTabsUkulele
Title : Little L
Transcripted by : Pomogh

note: p = pull/slap      \ = slide down
      / = slide up       X = dead note

Cool song by Jamiroquai. The bass seems to use a weird effect
(check out the cd for timing)

INTRO :
    p <--PLAY THIS FIRST        p p
G|-10--|-------------------------10--|B
D|-----|-----------------------------|A
A|-----|-6--8--6-8------6--8----8--X-|S
E|-----|-----------------------------|S
B|-----|-----------------------------|

e|-----|-10-10x10x-10---10-10x10x------|G
b|-----|-8--8-x8-x-8----8--8-x10x------|U
G|-----|-8--8-x8-x-8----8--8-x10x------|I
D|-----|-------------------------------|T
A|-----|-------------------------------|A
E|-----|-------------------------------|R
                          p p
G|-------------------------10--|B
D|-----------------------------|A
A|-6--8--66x------6--8----8--X-|S
E|-----------------------------|S
B|-----------------------------|

e|-10-10x10x-10---10-10x10x------|G
b|-8--8-x8-x-8----8--8-x10x------|U
G|-8--8-x8-x-8----8--8-x10x------|I
D|-------------------------------|T
A|-------------------------------|A
E|-------------------------------|R
  This isn't the correct one, but this is the basic.
  Sometimes the bass changed a bit.

VERSE 1 : (ALMOST IN ALL PART OF THE SONG, EXCEPT INTRO)
                p     p  p              p
G|--------------------------------------3--------|B
D|--------------6-----6--4-----------------------|A
A|-------------------------------------1--1x-1---|S
E|-------------4--4x-4--2--1--1--1--1------------|S
B|-4--4--4--4----------------------------------5-|

e|-------------------------------------------11/13---|G
b|-------------------------------------------11-11---|U
G|-------------------------------------------11-11---|I
D|---------------------------------------------------|T
A|---------------------------------------------------|A
E|---------------------------------------------------|R
  Check the cd for the rhythm timing

If you hear carefully, the bass sounds a bit different.
I don't know?, maybe 'coz the bass effect. But i try to
tab it and you may check if this right or not:
                p     p  p              p
G|--------------------------------------3--------|B
D|-------1--1---6-----6--4-------3--3------------|A
A|---------1-----------------------3---1--1x-1---|S
E|-------------4--4x-4--2--1--1------------------|S
B|-4--4----------------------------------------5-|
  I don't know if this correct but the bass oftenly
  changed.

CHORUS :
THE BASS AND GUITAR ARE SAME AS VERSE 1, BUT THERE'S
A GUITAR PLAYING SOME MELODY, CHECK THE CD AGAIN IF
YOU STILL DON'T BELIEVE IT =)
                p     p  p              p
G|--------------------------------------3--------|B
D|--------------6-----6--4-----------------------|A
A|-------------------------------------1--1x-1---|S
E|-------------4--4x-4--2--1--1--1--1------------|S
B|-4--4--4--4----------------------------------5-|

e|-------------------------------------------11/13---|G
b|-------------------------------------------11-11---|U
G|--------6-8---------------------6-8--10-8--11-11---|I
D|------/8----------------------/8---/8--------------|T
A|---------------------------------------------------|A
E|---------------------------------------------------|R
        \_______PALM MUTE_________________/
AND THE SECOND TIME :
                p     p  p              p
G|--------------------------------------3--------|B
D|--------------6-----6--4-----------------------|A
A|-------------------------------------1--1x-1---|S
E|-------------4--4x-4--2--1--1--1--1------------|S
B|-4--4--4--4----------------------------------5-|
GUITAR 1 PLAY THIS
e|---------------------------------------------------|G
b|---------------------------------------------------|U
G|--------6-8---------------------6-8--10-8--10-8----|I
D|------/8----------------------/8---/8----/8--------|T
A|---------------------------------------------------|A
E|---------------------------------------------------|R
        \_______PALM MUTE_______________________/
GUITAR 2 PLAY THIS :
e|-------------------------------------------11/13---|G
b|-------------------------------------------11-11---|U
G|-------------------------------------------11-11---|I
D|---------------------------------------------------|T
A|---------------------------------------------------|A
E|---------------------------------------------------|R
GUITAR 1 WHEN PLAY THE MELODY, USE DELAY OR ECHO
AND SET THE TIMING SO YOU CAN PLAY IT SAME LIKE IN CD

THAT'S IT. I STILL CAN'T FIND OUT THE VIOLIN SOUND (STRINGS) AND
SOME WEIRD BACKGROUND SOUND.





Comments


Popular Jamiroquai tabs & chords
Black Capricorn Day Bass Tabs
Black Capricorn Day 1 Bass Tabs
Deeper Underground 2 Bass Tabs
Starshild Bass Tabs
Whatever It Is I Just Can Stop Bass Tabs
Alright Chords
Blue Skies Chords
Black Devil Car Tabs
Stillness In Time Ukulele
World That He Wants Ukulele


Song lyrics



↑ Back to top | Tablatures and chords are parodies/interpretations of the original songs. You may use it for private study, scholarship, research or language learning purposes only
© 2014 AZChords.com Contact us | Privacy policy | DMCA | Add/correct tabs | Request tabs | Top 50 tabs