» » »

Jamiroquai, Hooked Up Bass tabs (ver.1)

Artists:  A B C D E F G H I J K L M N O P Q R S T U V W X Y Z # 

Hooked Up Bass tabs (ver.1)

Jamiroquai Tabs
Rating:
0/5 (0 votes)
Hooked Up lessons Tabs too difficult? Try these video lessons and learn fast
                Verse                |-> start here (Intro)               
G-|---------------------------------7-|---------------------------*faster*-|  When played w/variation,
D-|----------6--7-8---------------6---|------------------------------------|  play the *faster* part
A-|-4--5-6---------------------7------|-4--5-6--------------------07-7-7-7-|  w/seven fast 7's instead
E-|-------------------2--3-4----------|----------6--7-8---2--3-4-----------|  of usual four!

 Chorus
G-|----------------------------|6h8--------------------------|
D-|----------------------------|-----------------------------|
A-|---6----6-----6--6--6--6----|----66----6----6--6--6--6----|
E-|----------------------------|-----------------------------|
                                                              
G-|6h8-------------------------|-----------------------------|------|
D-|--------------------------6-|8p6--------------------------|------|
A-|---66----6----6--6--6--6---9|---9p6----6----6--6--6--6----|------| 
E-|----------------------------|-----------------------------|-6--8-|

  ||
G-|(8--9)---------------|-------------------------|---------------------|------------------|
D-|-8--10---8-9-10------|-8--10-------------8--10-|-8--10---8-9-10------|-8--10------------|
A-|---------------------|-----------8-8-10--------|---------------------|-----------/8----|
E-|-----------------8-8-|---------11--------------|-----------------8-8-|------------------|

 Chorus 2
G-|----------------------------|6h8--------------------------|
D-|----------------------------|-----------------------------| repeat the
A-|---6----6-----6--6--6--6----|----66----6----6--6--6--6----| last bar!
E-|----------------------------|-----------------------------|

G-|6h8-------------------------|--------------------------6-6|
D-|--------------------------6-|7p6--------------------------| repeat the
A-|---66----6----6--6--6--6---9|---9p6----6----6--6--6--6----| whole line!
E-|----------------------------|-----------------------------| 
                
G-|6h8-------------------------|
D-|----------------------------|
A-|---6-6----6-----------------|
E-|-----------------------6--8-|
 
  ||
G-|(8--9)---------------|-------------------------|
D-|-8--10---8-9-10------|-8--10-------------8--10-|
A-|---------------------|-----------8-8-10--------|
E-|-----------------8-8-|---------11--------------|

G-|-8--9----------------|----------------------9p7|h9p7h9p7h9--9-----------|----------------8--8--9--|
D-|---------8-9-10------|-8--10-------------8-----|--------------9-10------|-----------10------------|
A-|---------------------|-----------8-8-10--------|------------------------|-7--8--10----------------|
E-|-----------------8-8-|---------11--------------|--------------------8-8-|-------------------------|

G-|---------------------|-------------------------|---------------------|-------------------------|
D-|-8--10---8-8-10------|-8--10-------------8--10-|-8--10---8-9-10------|-8--10-------------8--10-|
A-|---------------------|-----------8-8-10--------|---------------------|-----------8-8-10--------|
E-|-----------------8-8-|---------11--------------|-----------------8-8-|---------11--------------|

G-|10-9-(8--------------|-------------------------|
D-|-------10)8-9-10-----|-8--10-------------8--10-| repeat the 
A-|---------------------|-----------8-8-10--------| whole line!
E-|-----------------8-8-|---------11--------------|

G-|---------------------|-------------------------|---------------------|-------------------------|
D-|-8--10---8-9-10------|-8--10-------------8--10-|8-10-10--8-9-10------|-8--10-------------8--10-|
A-|---------------------|-----------8-8-10--------|---------------------|-----------8-8-10--------|
E-|-----------------8-8-|---------11--------------|-----------------8-8-|---------11--------------|

G-|9h10p9h10------------|-------------------------|--------------------------------|
D-|----------8-9-10-----|-8--10-------------8-----|--------------------------------|
A-|---------------------|-----------8-8-10--------|-------------------6-6--6-8-----|
E-|-----------------8-8-|---------11-----------11-|-10--9--8--7--6-------------8-8-|
            
Submit corrections

comments powered by Disqus
↑ Back to top | Jamiroquai Bass for Hooked Up. Lyrics for acoustic guitar and electric guitar. Tablatures and chords are parodies/interpretations of the original songs. You may use it for private study, scholarship, research or language learning purposes only