» » »

Hay Floyd Bass tabs (ver.1)

Artists:  A B C D E F G H I J K L M N O P Q R S T U V W X Y Z # 

Hay Floyd Bass tabs (ver.1)

Jamiroquai
Rating:
3/5 (1 vote)

Hard to play? Try these video lessons and learn fast.
                Hay folks. another amazing jamiroquai song from there new album rock dust 
light star. This song is pritty simple on the bass, but theres lots and 
lots of improv bits that i added. I know it aint 100% to the right note. 
but i think its pritty good tab. listen out for the mutsed and sexy bass
fills :) 
please comment, rate, enjoy ;) AJ 

Normal Tuning 
G|
D|
A|
E|

Intro
|-------------------------------|
|-------------------------------|
|-------------------3----1------| x3 (with some veration)
|-1--3-4--3--5-6--6---4-----1-4-|

Chorus
|-------------------------------|
|-------------------5---3---1-3-|
|----------------6----6---5-----|
|-0-1--x-x-6-4-3----------------|

|------------------------------------------------|
|-------------------5---3---1-3--x-x-1-x-1-x-1h3-|
|----------------6----6---5----------------------|
|-0-1--x-x-6-4-3---------------------------------|

|------------------------------------------|
|-------------------5---3---1-3--1h3-x-1h3-|
|----------------6----6---5----------------|
|-0-1--x-x-6-4-3---------------------------|

|---------------------------|
|-------------------5---3---|
|----------------6----6---5-|
|-0-1--x-x-6-4-3------------|

Reggea Part
|--------------------------------------------|
|-----5-5----------------------3-3-3-3-3-----|
|-3-3-----------8-8-------3-3------------3---| 
|---------6-6-6-----1-1-1------------------1-|

|----------------------------------------------|
|-------5-5----------------------3-3-3-3-3-----|
|-3-3-3-----------8-8-------3-3------------3---| 
|-----------6-6-6-----1-1-1------------------1-|

|----------------------------------------------|
|-------5-5----------------------3---3-3-3-----|
|-3-3-3-----------8-8-------3-3------------3---| 
|-----------6-6-6-----1-1-1------------------1-|

|--------------------------------------------|
|-----5-5----------------------3-3-3-3-3-----|
|-3-3-----------8-8-------3-3------------3---| 
|---------6-6-6-----1-1-1------------------1-|

|-------------------------------|
|-------5-5---------------------|
|-3-3-3-----------8-8-------3-3-|
|-----------6-6-6-----1-1-1-----|

|------------------------------------------------------------|
|-----5-5----------------------------------------------------|
|-3-3------------------8-8-----------8-8------6-6--------3-3-|
|----------------6-6-6-----------6-6------4-4----------1-----|

|-------------------------------------------------|
|-3-3-----5-5-------------------------------------|
|-----3-3--------------8-8-----------8-8------6-6-|
|----------------6-6-6-----------6-6------4-4-----|

|-----------5-5------------------------------------|
|-------5-5--------------------------3---3-3-3-----|
|-3-3-3-------------------------3-3------------3---| 
|---------------6--6-6----1-1-1------------------1-|

|--------------------------------------------------|
|-------5-5-----------8-8------------3---3-3-3-----|
|-3-3-3-----------8-8-----------3-3------------3---| 
|-----------6-6-6---------1-1-1------------------1-|

|-------------------------------------------|
|-------5-5---------------------------------|
|-3-3-3-----------8-8-------3-3- -------3-3-|
|-----------6-6-6-----1-1-1------1--1-1-----|

|-------------------------------------------|
|-------5-5---------------------------------|
|-3-3-3-----------8-8-------3-3- -------3-3-|
|-----------6-6-6-----1-1-1------1--1-1-----|

|---------------------------------------------|
|-------5-5--------8-----------6//8-6---------|
|-3-3-3----------8--------------------8-6-----|
|-----------6--6-------5---6--------------8-6-|

Chorus
|------------------------------------1---|
|-------------------5---3---1-3--1h3---3-|
|----------------6----6---5--------------|
|-0-1--x-x-6-4-3-------------------------|

|-------------------------------------1--|
|----1-1-1-----------5---3---1-3--1h3----|
|----------------6----6---5--------------|
|-0-1------6-4-3-------------------------|

|-------------------------------------------|
|----1-1-1-----------5---3---1-3--1h3-x-0h1-|
|----------------6----6---5-----------------|
|-0-1------6-4-3----------------------------|

|---------------------------|
|-------------------5---3---|
|----------------6----6---5-|
|-0-1--x-x-6-4-3------------|

Piano/Bass Solo
|-----------------8-----10-10-10-------------------------------------------|
|---------6--8h10---10-----------13-10--8-6----------6---------------6-----|
|-x-x-x-8-----------------------------------8-8-8--8---8-6--8-8-8--8---6-8-|
|--------------------------------------------------------------------------|

|-----------------8-----10-10-10-------------------------------------------|
|---------6--8h10---10-----------13-10--8-6----------6---------------6-----|
|-x-x-x-8-----------------------------------8-8-8--8---8-6--8-8-8--8---6-8-|
|--------------------------------------------------------------------------|

|-----------------8-----10--10---------------------------------------------|
|---------6--8h10---10-----------13-10--8-6----------6------------------6--|
|-x-x-x-8-----------------------------------8-8-8--8---8-6--8-----6-7-8----|
|-------------------------------------------------------------6-8----------|

|-----------------8-----10-10-10----------------------------------------|
|---------6--8h10---10-----------13-10--8-6----------6------------------|
|-x-x-x-8-----------------------------------8-8-8--8---8-6--8-6---8-6---|
|---------------------------------------------------------------8-----8-|

Chorus
|------------------------------------1---|
|-------------------5---3---1-3--1h3---3-|
|----------------6----6---5--------------|
|-0-1--x-x-6-4-3-------------------------|

|---------------------------------8h10-8-8h10-|
|----1-1-1-----------5---3---1-3--------------|
|----------------6----6---5-------------------|
|-0-1------6-4-3------------------------------|

|-------------------------------------------|
|----1-1-1-----------5---3---1-3--1h3-x-0h1-|
|----------------6----6---5-----------------|
|-0-1------6-4-3----------------------------|

|-------------------------------------------|
|----1-1-1-----------5---3---1-3--1h3-x-0h1-|
|----------------6----6---5-----------------|
|-0-1------6-4-3----------------------------|

|---------------------------|
|-------------------5---3---|
|----------------6----6---5-|
|-0-1--x-x-6-4-3------------|

And thats it. please comment, rate. :) much love AJ
            
Hard to play? Try these video lessons and learn fast. | Correct




comments powered by Disqus
↑ Back to top | Tablatures and chords are parodies/interpretations of the original songs. You may use it for private study, scholarship, research or language learning purposes only