» » »

Electric Mistress Bass tabs (ver.1)

Artists:  A B C D E F G H I J K L M N O P Q R S T U V W X Y Z # 

Electric Mistress Bass tabs (ver.1)

Jamiroquai
Rating:
0/5 (0 votes)

Hard to play? Try these video lessons and learn fast.
                -------------------------------------------------------------------------------


Tuning: Standard
Nice line. Im not sure whether he did two takes for the bass with a filter on one or if
synth and bass.
In any case I tabbed both.

Order of the song:
Rest at the beginning.
Intro
Verse
Chorus
Verse
Chorus
Verse until end

	      		Ive pushed these together to let them fit.

             P P
G|-----------7-7h9p7---------------------------------------------------------|
D|---------------------------------------------------------------------------|
A|---------------------------------------------------------------------------|
E|------------------5-5-5--3-------5-5-5--3-----5-5-5--3-----5-5-5--3--------|

This line is used throughout each verse:
     P P             P
G|---7-7h9p7---------7-------------------------------------------------------|
D|---------------------------------------------------------------------------|
A|----------------------7---85-----------------------------------------------|
E|-----------5-5-5-3------8--------------------------------------------------|

	run to chorus on last verse
     P P             P
G|---7-7h9p7---------7-------------------------------------------------------|
D|---------------------------------------------------------------------------|
A|----------------------7---85-----------------------------------------------|
E|-----------5-5-5-3------8------5-7-----------------------------------------|

Chorus:	There are different variations but theyre easy to figure out if you need them
one alternate chorus ending is:

G|----------------10------------------------------|--------------------------|
D|----10-10-10-10----10----12-5-5-5-5-4-4-4-4-----|---5-5-5-5-4-4-3----------|
A|----------------------10------------------------|-----------------4--------|
E|---8--8--8--8--8--8--8--8--3-3-3-3-2-2-2-2------|--3-3-3-3-2-2-2-2---------|

| P  Pop
| /  slide up
| \  slide down
| h  hammer-on
| p  pull-off
| ~  vibrato
| +  harmonic
| x  Mute note
===============================================================================
            
Hard to play? Try these video lessons and learn fast. | Correct




comments powered by Disqus
↑ Back to top | Tablatures and chords are parodies/interpretations of the original songs. You may use it for private study, scholarship, research or language learning purposes only