» » »

Destitiute Illusions Bass tabs (ver.1)

Artists:  A B C D E F G H I J K L M N O P Q R S T U V W X Y Z # 

Destitiute Illusions Bass tabs (ver.1)

Jamiroquai
Rating:
0/5 (0 votes)

Hard to play? Try these video lessons and learn fast.
                Destitute Illusions

"you may think you're in heaven"

G -------------------
D -------------------
A -2 --------0-2-3-5-7  
E 0--0-3-0-2--3-5----   

G -------------------
D -------------------
A -2--------0-2-3-5-7
E 0--0-3-0-2 --3-5----

thats it you just play this line over and over again.
 a pretty funky but simple line
            
Hard to play? Try these video lessons and learn fast. | Correct




comments powered by Disqus
↑ Back to top | Tablatures and chords are parodies/interpretations of the original songs. You may use it for private study, scholarship, research or language learning purposes only