» » »

Jamiroquai, Black Crow Bass tabs (ver.1)

Artists:  A B C D E F G H I J K L M N O P Q R S T U V W X Y Z # 

Black Crow Bass tabs (ver.1)

Jamiroquai Tabs
 Rating:
4/5 (4 votes)
Black Crow lessons Tabs too difficult? Try these video lessons and learn fast
                Jamiroquai
**********

Bass Player:Nick Fyffe

Hi,
   In this track the bass comes in on the second chorus. Yet
another simple line but fun to play. In the M8 the bass copies
what the guitar plays at the start of the song.

ENJOY
Si Merrick

Chorus

G:|-----------------|-----------------|-----------------|
D:|-----------------|-----------------|-----------------|
A:|-7--7--57-57-5---|-----------------|-----------------|
E:|---------------7-|-5--------5--0-54|-3-------3-----3/|

G:|-----------------|-----------------|-----------------|
D:|------2----------|-------------5---|-----------------|
A:|----3---------5h6|-7--7--57--7---7-|-----------------|
E:|-1-------55h7----|-----------------|-5-------5-----54|

G:|-----------------|-----------------||
D:|-----------------|------2----------||
A:|-----------------|----3------------||
E:|-3---3---3---33-2|-1---------------||

M8

G:|-----------------|-----------------|-----------------|
D:|-5---7-----------|-----5-----------|-5---7-----------|
A:|---------8-7-5---|---5------------5|---------8-7-5---|
E:|---------------6-|-3---------------|---------------6-|

G:|-----------------|-----------------|-----------------|
D:|-----5-----------|-5---7-----------|-----5-----------|
A:|---5------------5|---------8-7-5---|---5------------5|
E:|-3---------------|---------------6-|-3---------------|

G:|-----------------|---------------------||
D:|-5---7-----------|-----5--3/5----------||
A:|---------8-7-5---|---5-------5--1/3-1--||
E:|---------------6-|-3----------6-------3||

If you have any comments or corrections just e-mail me at:
            
Submit corrections

comments powered by Disqus
↑ Back to top | Jamiroquai Bass for Black Crow. Lyrics for acoustic guitar and electric guitar. Tablatures and chords are parodies/interpretations of the original songs. You may use it for private study, scholarship, research or language learning purposes only