» » »

Iron Maiden, Paschendale Tabs (ver.2)

Artists:  A B C D E F G H I J K L M N O P Q R S T U V W X Y Z # 

Paschendale Tabs (ver.2)

Iron Maiden Tabs
Rating:
0/5 (0 votes)
Paschendale lessons Tabs too difficult? Try these video lessons and learn fast
                Intro:

Clean
      t         t      t      t      t      t      t      t       t
||--p0h10t12p0h8t12p0h7t12p0h5t12p0h5t12~--p0t5h12p0h3t12p0h2t12p0h2h12p0-t12--||
||o---------------------------------------------------------------------------o||
||-----------------------------------------------------------------------------||
||-----------------------------------------------------------------------------||
||o---------------------------------------------------------------------------o||
||-----------------------------------------------------------------------------||
t = triplet



Intro part 2

Distortion
||-----------------------------------------------------------------------------||
||-----------------------------------------------------------------------------||
||------9--9----7--7----5--5----4--4-------5--5----4--4----2--2----------------||
||------9--9----7--7----5--5----4--4-------5--5----4--4----2--2------5--2------||
||------7--7----5--5----3--3----2--2-------3--3----2--2----0--0------5--2------||
||---0-------0-------0--------0----------0-------0-------0-------0---3--0------||

||-----------------------------------------------------------------------------||
||-----------------------------------------------------------------------------||
||------9--9----7--7----5--5----4--4-------5--5----4--4----7--7------9--9------||
||------9--9----7--7----5--5----4--4-------5--5----4--4----7--7------9--9------||
||------7--7----5--5----3--3----2--2-------3--3----2--2----5--5------7--7------||
||---0-------0-------0--------0----------0-------0-------0-------0-------------||





Verse 1


Clean
t t t t t t t t t
||--p0h10t12p0h8t12p0h7t12p0h5t12p0h5t12~--p0t5h12p0h3t12p0h2t12p0h2h12p0-t12--||
||o---------------------------------------------------------------------------o||
||-----------------------------------------------------------------------------||
||-----------------------------------------------------------------------------||
||o---------------------------------------------------------------------------o||
||-----------------------------------------------------------------------------||


Distortion
||-----------------------------------------------------------------------------||
||-----------------------------------------------------------------------------||
||------5--5-----4--4----------------------------------------------------------||
||------5--5-----4--4------7--7-----5--5--------7--7-----5--5-----2--2---------||
||------3--3-----2--2------7--7-----5--5--------7--7-----5--5-----2--2---------||
||---0--------0--------0---5--5--0--3--3--2h3---5--5--0--3--3--0--0--0---------||
            
Submit corrections

comments powered by Disqus
↑ Back to top | Iron Maiden Tabs for Paschendale. Lyrics for acoustic guitar and electric guitar. Tablatures and chords are parodies/interpretations of the original songs. You may use it for private study, scholarship, research or language learning purposes only