» » »

Iron Maiden, Aces High Tabs (ver.1)

Artists:  A B C D E F G H I J K L M N O P Q R S T U V W X Y Z # 

Aces High Tabs (ver.1)

Iron Maiden Tabs
 Rating:
2.2/5 (66 votes)
Aces High lessons Tabs too difficult? Try these video lessons and learn fast
1
                                               IRON MAIDEN- ACES HIGH

Here it is, comment, rate, ENJOY!

INTRO

Guitar 1:
  PM................                   ~~~~~~
e--------------------------------------------|
B--------------------------------------------|
G--------4-----6--4---x15--------4-----------|
D--6--7-----7--------------6--7-----7--6-----|
A--------------------------------------------|
E--------------------------------------------|

Guitar 2:
  PM................                   ~~~~~~
e--------------------------------------------|
B--------------------------------------------|
G--------------------------------------------|
D--------6-----7--6---x15--------6-----------|
A--7--9-----7--------------7--9-----9--7-----|
E--------------------------------------------|

Guitar 1:

e------------------------------------------------------------------|
B----------------5--5---------------------3-3-3--5--3--------------|
G--5---4-5-4-5-4-------5----5---4-5-4-5-4--------------5--4---x4---|
D------------------------------------------------------------------|
A------------------------------------------------------------------|
E------------------------------------------------------------------|

Guitar 2:

e------------------------------------------------------------------|
B------------------------------------------------------------------|
G----------------5--5---------------------4-4-4--5--4--------------|
D--7---5-7-5-7-5-------7----7---5-7-5-7-5--------------7--5---x4---|
A------------------------------------------------------------------|
E------------------------------------------------------------------|

VERSE

Both Guitars

e--------------------------------------------------------------------------|
B--------------------------------------------------------------------------|
G--9---11--12---14---12---11--9---12---11---7---11\--7----9---11--12---14--|
D--9---11--12---14---12---11--9---12---11---7---11\\-7----9---11--12---14--|
A--7---9---10---12---10---9---7---10---9----5---9 \\\5----7---9---10---12--|
E--------------------------------------------------------------------------|

e-------------------------------|
B-------------------------------|
G--12---11---9---12--11---7-----|
D--12---11---9---12--11---7-----|
A--10---9----7---10--9----5-----|
E-------------------------------|

e-------------------------------------------------------------------------|
B-------------------------------------------------------------------------|
G-------------------------------------------------------------------------|
D--7---9---10---12---10---9---7---10---9---5---9---5----7---9---10---12---|
A--7---9---10---12---10---9---7---10---9---5---9---5----7---9---10---12---|
E--5---7---8----10---8----7---5---8----7---3---7---3----5---7---8----10---|

e--------------------------------|
B------------------------0-------|
G------------------------0-------|
D--10---9---7---10---9---5-------|
A--10---9---7---10---9---5-------|
E--8----7---5---8----7---3-------|

BRIDGE

Both Guitars

e------------------------------------------------------|
B----------------------------------1p0-----------------|
G---------------------------------------2p0-2p0--------|
D------------5---------7-------------------------4p0---|
A--5-7-7-7-7---7-7-7-7---7-7-7-7-----------------------|
E------------------------------------------------------|

This part is played the 2nd, 4th time instead of ^^^^
Guitar 1
e--------------|
B--5p3---------|
G------5p4--5--|
D--------------|
A--------------|
E--------------|

Guitar 2
e--------------|
B--------------|
G--5p4-2p0-2---|
D--------------|
A--------------|
E--------------|

CHORUS

Both Guitars

e---------------------------------|
B---------------------------------|
G--9-------------5--------7-------|
D--9-------------5--------7----x4-|
A--7-------------3--------5-------|
E--0------------------------------|

e---------------------------------|
B---------------------------------|
G----------------8--------10------|
D--5-------------8--------10---x4-|
A--5-------------6--------8-------|
E--3------------------------------|

For the little whammy thing I play a natrual harmonic on the 5th fret of the D to the 
on the 5th of the G......

INTERLUDE RIFF

Both Guitars

 PM...........               ............
e------------------------------------------------------|
B------------------------------------------------------|
G------------------------------------------------------|
D----------------------7--7------------------------2---|
A--0--3-3--0-0--3p2p0--5--5---0--3-3--0-0--3p2p0---0---|
E------------------------------------------------3-----|

SOLOS

Solo 1: Dave Murray

e-------------------------------------------------------------------------|
B---BU--------------------------------------------------------------------|
G--7--(9)--(9)--(9)--(9)--(9)-(9)-(9)-(9)-(9)-(9)-(9)-(9)-(9)-(9)-(9)-(9)-|
D-------------------------------------------------------------------------|
A-------------------------------------------------------------------------|
E-------------------------------------------------------------------------|

e----------------------------------------BU-------------------------------|
B-----------------------------BD----5--8---(10)-----8p5-------------------|
G--(9)-(9)-(9)-(9)-(9)-(9)-(9)--(7)----------------------7h9--7p5--7p5----|
D-------------------------------------------------------------------------|
A-------------------------------------------------------------------------|
E-------------------------------------------------------------------------|
                  ~~~
e-----------------------8p5p0-7p5p0-8p5p0-7p5p0-8p5p0-7p5p0-8p5p0-7p5p0---|
B---------------------5---------------------------------------------------|
G-----5-------------------------------------------------------------------|
D--7----7p5--7p5----------------------------------------------------------|
A-----------------7-------------------------------------------------------|
E-------------------------------------------------------------------------|
                                 ~~~~~~
e--8p5p0-7p5p0-8p5p0-7p5p0-------------------------------------------------|
B-----------------------------BU-------------------------12h13p12----------|
G---------------------------12--(14)----12h14p12---12-14----------14-------|
D-----------------------------------------------14-------------------------|
A--------------------------------------------------------------------------|
E--------------------------------------------------------------------------|
                        BU     ~~~~~~~~
e-----------12h13p12--15--(17)---------------|
B--12h13h15----------------------------------|
G--------------------------------------------|
D--------------------------------------------|
A--------------------------------------------|
E--------------------------------------------|

Backing for Solo 1

e----------------------------------------|
B----------------------------------------|
G--------------------------5------7------|
D--7-----3-----5-----7-----5------7--x2--|
A--7-----3-----5-----7-----3------5------|
E--5-----1-----3-----5-------------------|

Solo 2: Adrian Smith

e-------------------------------------------------------------------------|
B--15p12-0-15p14-0-15p12-0-15p14-0-15p12-0-15p14-0-15p12-0-15p14-0-15p12--|
G-------------------------------------------------------------------------|
D-------------------------------------------------------------------------|
A-------------------------------------------------------------------------|
E-------------------------------------------------------------------------|
                   PH   PH   PH
e-------------------------------------------------------------------------|
B--0-15p14-0-12-0--12p0-10p0-8p0-10p0-8p0-7p0-8p0-7p0-5p0-7p0-8p0-7p0-----|
G-------------------------------------------------------------------------|
D-------------------------------------------------------------------------|
A-------------------------------------------------------------------------|
E-------------------------------------------------------------------------|
   ~~~~~~~                                                 ~~~~
e-------------------------------------------------------------------------|
B----------------0h7h10-9p7---9p7----------------------------------7------|
G--6\-----------------------9-----9/11--10p9p7---9p7-----------------10-7-|
D------------/9--------------------------------9-----9-7------------------|
A--------------------------------------------------------9\5----\0--------|
E-------------------------------------------------------------------------|
   PH      PH       ~~~~~                                  BU ~~~~~~~
e----------------------------------------BU---BD---------17-(19)----------|
B------------------------------15--17--17-(19)-(17)--15-------------------|
G--6----------------------/16---------------------------------------------|
D----9--8--7--------------------------------------------------------------|
A-------------9--8--7-----------------------------------------------------|
E-------------------------------------------------------------------------|

Backing for Solo 2

e------------------------------------|
B------------------------------------|
G--------------------------7-----9---|
D--9-----5-----7-----9-----7-----9---|
A--9-----5-----7-----9-----5-----7---|
E--7-----3-----5-----7---------------|

OUTRO

The outro is just the intro but with this being played the 4th time

Guitar 1:
   ~~~                                                         ~~~~
e--------------------------------------------------------------------------|
B------------------3-3-3-5-3h5p3-1----8--6h8p8\5--3/5--6--5----------------|
G--5---4-5-4-5-4-4-----------------4------------------------4--5-----------|
D----------------------------------------------------------------------7---|
A----------------------------------------------------------------------7---|
E----------------------------------------------------------------------5---|

Guitar 2:
   ~~~                                                         ~~~~
e--------------------------------------------------------------------------|
B--------------------------------------------------------------------------|
G------------------4-4-4-5-4h5p4-2----9--7h9p7\5--4/5--7--5----------------|
D--7---5-7-5-7-5-5-----------------5------------------------5--7--------7--|
A-----------------------------------------------------------------------7--|
E-----------------------------------------------------------------------5--|

Order:
Intro
Verse
Bridge
Chorus
Interlude Riff
Solos
Interlude Riff
Verse
Bridge
Chorus
Intro/Outro

| /  slide up
| \  slide down
| h  hammer-on
| p  pull-off
| ~  vibrato
| +  harmonic
| x  Mute note
===========================================================================
            
Submit corrections

comments powered by Disqus
↑ Back to top | Iron Maiden Tabs for Aces High. Lyrics for acoustic guitar and electric guitar. 1 Tablatures and chords are parodies/interpretations of the original songs. You may use it for private study, scholarship, research or language learning purposes only