>
 >
Paschendale

Paschendale Bass Tabs

Iron Maiden - Paschendale chords, tabs, tablatures, lyrics

Guitar lessons | Add/correct | Request | Top 50 tabs Artists:  A B C D E F G H I J K L M N O P Q R S T U V W X Y Z 0-9

Paschendale Bass Tabs – Iron Maiden

CD, Sheet music, Poster

Do you like Paschendale? Share with your friends now
Bass TabsBass Tabs v2ChordsTabsTabs v2Tabs v3Tabs v4Tabs v5Ukulele
Band:Iron Maiden
Album:Dance of Death
Bassist:Steve Harris


Tuning:Standard


Steve comes in at 0:17
G|--------------------------------------|
D|-10-9-7-5--7-5------10-9-7-5--7-5-----|
A|---------------9-7----------------9-7-|
E|--------------------------------------|


G|------------------------------------------|
D|------------------------------------------|
A|-7-7--5-5--3-3--2-2----5-5--2-2--0-0------|
E|--------------------------------------0-0-|


G|------------------------------------------|
D|------------------------------------------|
A|-7-7--5-5--3-3--2-2----5-5--7-7--7-7--9-9-|
E|------------------------------------------|

Steve comes in at 0:51
G|--------------------------------------|
D|-10-9-7-5--7-5------10-9-7-5--7-5-----|
A|---------------9-7----------------9-7-|
E|--------------------------------------|


G|-------------------------------------------|
D|*-----------------------------------------*|  x2
A|*-3-3--2-2--0-0---------------------------*|
E|----------------3-3----5-5--3-3--2-2--0-0--|


G|--------------------------------------------------|
D|--------------------------------------------------|
A|-5/7-7-7-7--5-5-5/7-7--7----7-7-7-7--3-3-3/5-5--5-|
E|--------------------------------------------------|


G|------------------------------------------------------|
D|------------------------------------------------------|
A|-5/7-7-7-7--5-5-5/7-7--7----10-10-10-10--3-3-3/5-5--5-|
E|------------------------------------------------------|


G|--------------------------------------------------|
D|--------------------------------------------------|
A|-5/7-7-7-7--5-5-5/7-7--7----7-7-7-7--3-3-3/5-5--5-|
E|--------------------------------------------------|


G|---------------------------------------------------|
D|---------------------------------------------------|
A|-5/7-7-7-7--5-5-5/7-7--7--10-10-10-10--------------|
E|--------------------------------------3-3-3/5-5--5-|


G|-----------------------------|
D|-----------------------------|
A|----3--------5----3--------5-|
E|-0----3-0--3---0----3-0--3---|


G|--------------------------------------------|
D|*------------------------------------------*|  x4
A|*-3-3--2-2--0-0----------------------------*|
E|-----------------3-3----5-5--3-3--2-2--0-0--|


G|--------------------------------------------|
D|*-------------------------------------------|
A|*-7---7--7-7--7--10--3--5---5--5-5--5--2--5-|
E|--------------------------------------------|


G|-------------------------------|
D|------------------------------*|  x2
A|-7---7--7-7--7--10--3--3--5-5-*|
E|-------------------------------|


G|------------------------------------------|
D|------------------------------------------|
A|-0-0--2-2--3-3--5-5--0-0--2-2--3-3--5-5-5-|
E|------------------------------------------|


G|----------------------------------------|
D|----------------------------------------|
A|-0-0--2-2--3-3--5-3\2--0-0--2-2--3-3--5-|
E|----------------------------------------|


G|--------------------------------------------|
D|*------------------------------------------*|  x5
A|*-3-3--2-2--0-0----------------------------*|
E|-----------------3-3----5-5--3-3--2-2--0-0--|

Steve comes in at 3:26
G|------------------------------------------|
D|*-2---5------4---7------5---9----7--5----*|  x3
A|*--------------------------------------2-*|
E|------------------------------------------|


G|----------------------------------------------------|
D|*--------------------------------------------------*|  x4
A|*-------0-2----3-2-0-3-2----3-2-0----0-2-0-------5-*|
E|--0-2-3---------------------------3--------3-2-0----|


G|-----------------------------------------------------|
D|-----------------------------------------------------|
A|-5-7-7-7-7--3-3-3--5-5--5-----5-5-5-5--2-2-2--3-3--3-|
E|-----------------------------------------------------|


G|-----------------------------------------------------------|
D|-----------------------------------------------------------|
A|-7-7-7-7--3-3-3--5-5--5-----5-5-5-5--2-2-2--3-3--3---------|
E|-----------------------------------------------------3-2-0-|


G|-----------------------------------------------------|
D|*---------------------------------------------------*|  x2
A|*-7-7-7-7--3-3-3--5-5--5-----5-5-5-5--2-2-2--3-3--3-*|
E|-----------------------------------------------------|


G|-------------------------------|
D|-------------------------------|
A|----3--------5----3--------5---|
E|-0----3-0--3---0----3-0--3---0-|

Steve comes in at 4:48
G|-----------------------------------------------------------------|
D|-9-----9-----9-----9------5--5-----7-----7-----7-----7------7--7-|
A|---7-7---7-7---7-7---7-7-------------5-5---5-5---5-5---5-5-------|
E|-----------------------------------------------------------------|


G|------------------------------------------------------------------|
D|*-9-----9-----9-----9------5--5-----7-----7-----7-----7------5--5-|
A|*---7-7---7-7---7-7---7-7-------------5-5---5-5---5-5---5-5-------|
E|------------------------------------------------------------------|


G|------------------------------------------------------------------|
D|-9-----9-----9-----9------5--5-----7-----7-----7-----7------7--7-*|  x2
A|---7-7---7-7---7-7---7-7-------------5-5---5-5---5-5---5-5-------*|
E|------------------------------------------------------------------|


G|-------------------------------------------------------------------|
D|*-6-----6-----6-----6------2--2-----4-----4-----4-----4------4--4-*|  x4
A|*---4-4---4-4---4-4---4-4-------------2-2---2-2---2-2---2-2-------*|
E|-------------------------------------------------------------------|


G|-------------------------------------------------------------------|
D|*-----------------------------------------------------------------*|  x4
A|*-6-----6-----6-----6------2--2-----4-----4-----4-----4------4--4-*|
E|----4-4---4-4---4-4---4-4-------------2-2---2-2---2-2---2-2--------|


G|-------------------------------------------------------------------|
D|*-7-----7-----7-----7------3--3-----5-----5-----5-----5------5--5-*|  x4
A|*---5-5---5-5---5-5---5-5-------------3-3---3-3---3-3---3-3-------*|
E|-------------------------------------------------------------------|


G|-------------------------------------------|
D|*-----------------------------------------*|  x6
A|*-3-3--2-2--0-0---------------------------*|
E|-----------------3-3----5-5--3-3--2-2--0-0-|


G|--------------------------------------------|
D|*-------------------------------------------|
A|*-7---7--7-7--7--10--3--5---5--5-5--5--2--5-|
E|--------------------------------------------|


G|-------------------------------|
D|------------------------------*|  x4
A|-7---7--7-7--7--10--3--3--5-5-*|
E|-------------------------------|


G|-------------------------------|
D|-------------------------------|
A|----3--------5----3--------5---|
E|-0----3-0--3---0----3-0--3---0-|

Steve comes in at 8:00
G|--------------------------------------|
D|-10-9-7-5--7-5------10-9-7-5--7-5-----|
A|---------------9-7----------------9-7-|
E|--------------------------------------|

That's it.                        UP THE IRONS!!!!!
----------------------------------------------------------------------------
                                   Legend
Repeat:  |* *|
         |* *|  





Comments


Popular Iron Maiden tabs & chords
Aces High Bass Tabs
Invaders 2 Bass Tabs
Blood On The World's Hands 1 Tabs
Como Estais Amigos Tabs
Junita Tabs
Lord Of Light 1 Tabs
Purgatory Tabs
Run To The Hills Tabs
The Educated Fool Tabs
Two Minutes To Midnight Tabs


Song lyrics



↑ Back to top | Tablatures and chords are parodies/interpretations of the original songs. You may use it for private study, scholarship, research or language learning purposes only
© 2014 AZChords.com Contact us | Privacy policy | DMCA | Add/correct tabs | Request tabs | Top 50 tabs